Un Vicio Caro Es El Amor, Dildo (tablatura) (ver 2)

Autor: Anónimo | 21952 visualizaciones

**Es la primer rola que subo,espero la chequen y
les guste la ejecución,y la dedico a toda la banda,
por aquellos para los que el amor es un vicio caro**

Intro
*Con distorción

e|-----------------------------0--1--1-1--1--|
b|--1--1-1--1--1--1-1--1-------0--1--1-1--1--|
g|--0--0-0--0--2--2-2--2-----1----2--2-2--2--|
d|--2--2-2--2--2--2-2--2---2------3--3-3--3--|
a|--3--3-3--3-------------2-------3--3-3--3--|
e|--------------------------------1--1-1--1--|

*enseguida,aun con distorción

e|---------------------------------------------------------|x2
b|--10b-8-10--8-10b-8--------------------------------------|
g|--------------------9v--7-9-10-10-10/12-10-12-9v---------|
d|---------------------------------------------------------|
a|-------------------------------------------------------- |
e|---------------------------------------------------------|

*se quita la distorción

C             Am
El humo es espeso
            E
no me deja ver
     F                       C
no creo que ella vaya a volver
C        Am                   E
noches eternas bañadas de alcohol
      F                       C
y es todo tan incierto hasta hoy

*regresa la distorción,se toca en el lugar de cada acorde

e|-----------------------------0--1--1-1--1--|
b|--1--1-1--1--1--1-1--1-------0--1--1-1--1--|
g|--0--0-0--0--2--2-2--2-----1----2--2-2--2--|
d|--2--2-2--2--2--2-2--2---2------3--3-3--3--|
a|--3--3-3--3-------------2-------3--3-3--3--|
e|--------------------------------1--1-1--1--|

C            Am
Estoy en el fondo
            E
no puedo salir
   F                     C
estoy tan condenado a morir
C              Am               E
La vida es el precio para mantener
    F                        G(se toca una vez y se sostiene el acorde)
el vicio que me tiene hasta hoy

G (se toca una vez y se sostiene el acorde)
sin saber a donde voy

*aun con distorción

D       F#               Bm
Como vivir tan lejos de ti
            G
solo adorame, solo adorame
D              F#               Bm
Que importa morir si ya estuve aqui
             G
solo adorame, solo adorame
    A(se toca una vez y se sostiene el acorde)
y asi poder
  G(se toca una vez y se sostiene el acorde)
saber a donde
A(se toca una vez y se sostiene el acorde)
ir,
       G(se toca una vez y se sostiene el acorde)
solo adorameee

*seguimos con distorción

e|---------------------------------------------------------|x2
b|--10b-8-10--8-10b-8--------------------------------------|
g|--------------------9v--7-9-10-10-10/12-10-12-9v---------|
d|---------------------------------------------------------|
a|-------------------------------------------------------- |
e|---------------------------------------------------------|

*ahora se quita la distorción

C               Am
El tiempo es espeso
            E
no me deja ver
     F                        C
no creo que ella pueda entender
C             Am             E
que vivo despierto dias sin sol
      F                        C
y es todo tan incierto hasta hoy

*regresa la distorción,se toca en el lugar de cada acorde

e|------------------------0--0-0--0--1--1-1--1--|
b|--1--1-1--1--1--1-1--1--0--0-0--0--1--1-1--1--|
g|--0--0-0--0--2--2-2--2--1--1-1--1--2--2-2--2--|
d|--2--2-2--2--2--2-2--2--2--2-2--2--3--3-3--3--|
a|--3--3-3--3-------------2--2-2--2--3--3-3--3--|
e|-----------------------------------1--1-1--1--|

C            Am
Estoy en el fondo
            E
no puedo salir
   F                      C
estoy tan condenado a sufrir
C               Am                    E
La vida es el precio que habra que pagar
   F                  G(se toca una vez y se sostiene el acorde)
para poder tenerte aqui
               G(se toca una vez y se sostiene el acorde)
sin saber a donde ir

*aun con distorción

D       F#               Bm
Como vivir tan lejos de ti
             G
solo adorame, solo adorame
D              F#               Bm
Que importa morir si ya estuve aqui
              G
solo adorame, solo adorame

*lo siguiente se toca una vez y se sostiene el acorde
A
Podre saber
Bm
quien eres
A
puedo hacer
Bm
sacrificios
A
puedo no ser
Bm
el mismo
G
pero hoy
    A
un vicio caro es el amooooor

*va el solo

e|----------------------------------------|
b|--2-4-4/7-9-7-7-7-7--2-4-4/7-9-6-6-6-6--|
g|----------------------------------------|
d|----------------------------------------|
a|----------------------------------------|
e|----------------------------------------|

e|----------------------------------------|
b|--2-4-4/7-9-10b-10b-10b-9-7-9-7-7-7-7---|
g|----------------------------------------|
d|----------------------------------------|
a|----------------------------------------|
e|----------------------------------------|

*se sigue tocando hasta el final de la canción

D       F#               Bm
Como vivir tan lejos de ti
             G
solo adorame, solo adorame
D              F#               Bm
Que importa morir si ya estuve aqui
             G
solo adorame, solo adorame
D              F#
solo adorame, solo adorame
Bm
solo adorameeeeeeee

*y termina

e|----------------|
b|--2-4-4/7-9-7v--|
g|----------------|
d|----------------|
a|----------------|
e|----------------|
Calificar esta versión:
Aviso: Este fichero es trabajo propio de su transcriptor y representa su interpretación personal de la canción. El material contenido en esta página es para exclusivo uso privado, por lo que se prohibe su reproducción o retransmisión, así como su uso para fines comerciales.
Más versiones de Un Vicio Caro Es El Amor, Dildo
Un Vicio Caro Es El Amor
acordes
Un Vicio Caro Es El Amor
tablatura
Un Vicio Caro Es El Amor (ver 2)
tablatura
Un Vicio Caro Es El Amor
bajo
Descubre más canciones de Dildo