Un Vicio Caro Es El Amor, Dildo (bajo)

Autor: Anónimo | 38225 visualizaciones

Pista 1
     INTRO
     E     E  E  E  E  E  E  E     E  E  E  E  E  E  E  E
G||-----------------------------|--------------------------|
D||-----------------------------|-----------------------0--|
A||--3-----3-----3--3--3--3--3--|--0--0-----0--0--0--0-----|
E||-----------------------------|--------------------------|


  E  E  E  E  E  E  E  E     E  E  E  E  E  E  E  E
--------------------------|--------------------------|
--2--2-----0--2--0--2-----|--3--3-----3--3--3--3-----|
--------------------------|--------------------------|
--------------------------|--------------------------|


  E  E  E  E  E  E  E  E     E  E  E  E  E  E  E  E
--------------------------|--------------------------|
--------------------------|-----------------------0--|
--3--3-----3--3--3--3--3--|--0--0-----0--0--0--0-----|
--------------------------|--------------------------|


  E  E  E  E  E  E  E  E     E  E  E  E  E  E  E  E
--------------------------|--------------------------|
--2--2-----0--2--0--2-----|--3--3-----3--3--3--3-----|
--------------------------|--------------------------|
--------------------------|--------------------------|


  VERSO(El humo es espeso.....)
  E                             E  E  E  E  E  E  E
-----------------------------------------------------|
-----------------------------------------------------|
--3-----------------------------3-----3--3--3--3--3--|
-----------------------------------------------------|


  E  E  E  E  E  E  E  E     E  E  E  E  E  E  E  E
--------------------------|--------------------------|
-----------------------0--|--2--2-----0--2--0--2-----|
--0--0-----0--0--0--0-----|--------------------------|
--------------------------|--------------------------|


  E  E  E  E  E  E  E  E
--------------------------|
--3--3-----3--3--3--3-----|
--------------------------|
--------------------------|


  NOches enteras bañadas de alcohol
  E                                 E  E  E  E  E  E  E
---------------------------------------------------------|
---------------------------------------------------------|
--3---------------------------------3-----3--3--3--3--3--|
---------------------------------------------------------|


  E  E  E  E  E  E  E  E     E  E  E  E  E  E  E  E
--------------------------|--------------------------|
-----------------------0--|--2--2-----0--2--0--2-----|
--0--0-----0--0--0--0-----|--------------------------|
--------------------------|--------------------------|


                             Estoy en el fondo
  E  E  E  E  E  E  E  E     E                 E  E  E  E  E  E  E
--------------------------|----------------------------------------
--3--3-----3--3--3--3-----|----------------------------------------
--------------------------|--3-----------------3-----3--3--3--3--3-
--------------------------|----------------------------------------

  E  E  E  E  E  E  E  E     E  E  E  E  E  E  E  E
--------------------------|--------------------------|
-----------------------0--|--2--2-----0--2--0--2-----|
--0--0-----0--0--0--0-----|--------------------------|
--------------------------|--------------------------|


  E  E  E  E  E  E  E  E     E  E  E  E  E  E  E  E
--------------------------|--------------------------|
--3--3-----3--3--3--3-----|--------------------------|
--------------------------|--3--3-----3--3--3--3--3--|
--------------------------|--------------------------|


  E  E  E  E  E  E  E  E     E  E  E  E  E  E  E  E
--------------------------|--------------------------|
-----------------------0--|--2--2-----0--2--0--2-----|
--0--0-----0--0--0--0-----|--------------------------|
--------------------------|--------------------------|


  E  E  E  E  E  E  E  E     E  E  E  E  E  E  E  E     W
--------------------------|--------------------------|-----
--3--3-----3--3--3--3-----|--------------------------|-----
--------------------------|--------------------------|-----
--------------------------|--3--3--3--3--3--3--3--3--|--3--


  CORO
  E    E  E  E  E  E  E  E     E  E  E  E  E  E  E  E
----------------------------|--------------------------|
--0----0--0--0--0--0--0--0--|--------------------------|
----------------------------|--------------------------|
----------------------------|--2--2--2--2--2--2--2--2--|


  E  E  E  E  E  E  E  E     E  E  E  E  E  E  E  E
--------------------------|--------------------------|
--------------------------|--------------------------|
--2--2--2--2--2--2--2--2--|--------------------------|
--------------------------|--3--3--3--3--3--3--3--3--|


  E  E  E  E  E  E  E  E     E  E  E  E  E  E  E  E
--------------------------|--------------------------|
--0--0--0--0--0--0--0--0--|--------------------------|
--------------------------|--------------------------|
--------------------------|--2--2--2--2--2--2--2--2--|


  E  E  E  E  E  E  E  E     E  E  E  E  E  E  E  E
--------------------------|--------------------------|
--------------------------|--------------------------|
--2--2--2--2--2--2--2--2--|--------------------------|
--------------------------|--3--3--3--3--3--3--3--3--|


  E  E  E  E  E  E  E  E     E  E  E  E  E  E  E  E
--------------------------|--------------------------|
--------------------------|--------------------------|
--0--0--0--0--0--0--0--0--|--------------------------|
--------------------------|--3--3--3--3--3--3--3--3--|



  E  E  E  E  E  E  E  E     W
--------------------------|-------------------|
--------------------------|-------------------|
--0--0--0--0--0--0--0--0--|-------------------|
--------------------------|--3----------------|
INTRO
  E     E  E  E  E  E  E  E
-----------------------------|
-----------------------------|
--3-----3-----3--3--3--3--3--|
-----------------------------|


  E  E  E  E  E  E  E  E     E  E  E  E  E  E  E  E
--------------------------|--------------------------|
-----------------------0--|--2--2-----0--2--0--2-----|
--0--0-----0--0--0--0-----|--------------------------|
--------------------------|--------------------------|


  E  E  E  E  E  E  E  E     E  E  E  E  E  E  E  E
--------------------------|--------------------------|
--3--3-----3--3--3--3-----|--------------------------|
--------------------------|--3--3-----3--3--3--3--3--|
--------------------------|--------------------------|


  E  E  E  E  E  E  E  E     E  E  E  E  E  E  E  E
--------------------------|--------------------------|
-----------------------0--|--2--2-----0--2--0--2-----|
--0--0-----0--0--0--0-----|--------------------------|
--------------------------|--------------------------|


                             VERSO
  E  E  E  E  E  E  E  E     E     E  E  E  E  E  E  E
--------------------------|-----------------------------|
--3--3-----3--3--3--3-----|-----------------------------|
--------------------------|--3-----3-----3--3--3--3--3--|
--------------------------|-----------------------------|


  E  E  E  E  E  E  E  E     E  E  E  E  E  E  E  E
--------------------------|--------------------------|
-----------------------0--|--2--2-----0--2--0--2-----|
--0--0-----0--0--0--0-----|--------------------------|
--------------------------|--------------------------|


  E  E  E  E  E  E  E  E     E  E  E  E  E  E  E  E
--------------------------|--------------------------|
--3--3-----3--3--3--3-----|--------------------------|
--------------------------|--3--3-----3--3--3--3--3--|
--------------------------|--------------------------|


  E  E  E  E  E  E  E  E     E  E  E  E  E  E  E  E
--------------------------|--------------------------|
-----------------------0--|--2--2-----0--2--0--2-----|
--0--0-----0--0--0--0-----|--------------------------|
--------------------------|--------------------------|


  E  E  E  E  E  E  E  E     E  E  E  E  E  E  E  E
--------------------------|--------------------------|
--3--3-----3--3--3--3-----|--------------------------|
--------------------------|--3--3-----3--3--3--3--3--|
--------------------------|--------------------------|


  E  E  E  E  E  E  E  E     E  E  E  E  E  E  E  E
--------------------------|--------------------------|
-----------------------0--|--2--2-----0--2--0--2-----|
--0--0-----0--0--0--0-----|--------------------------|
--------------------------|--------------------------|


  E  E  E  E  E  E  E  E     E  E  E  E  E  E  E  E
--------------------------|--------------------------|
--3--3-----3--3--3--3-----|--------------------------|
--------------------------|--3--3-----3--3--3--3--3--|
--------------------------|--------------------------|


  E  E  E  E  E  E  E  E     E  E  E  E  E  E  E  E
--------------------------|--------------------------|
-----------------------0--|--2--2-----0--2--0--2-----|
--0--0-----0--0--0--0-----|--------------------------|
--------------------------|--------------------------|


  E  E  E  E  E  E  E  E     E  E  E  E  E  E  E  E     W
--------------------------|--------------------------|----
--3--3-----3--3--3--3-----|--------------------------|----
--------------------------|--------------------------|----
--------------------------|--3--3--3--3--3--3--3--3--|--3-


  CORO
  E    E  E  E  E  E  E  E     E  E  E  E  E  E  E  E
----------------------------|--------------------------|
--0----0--0--0--0--0--0--0--|--------------------------|
----------------------------|--------------------------|
----------------------------|--2--2--2--2--2--2--2--2--|


  E  E  E  E  E  E  E  E     E  E  E  E  E  E  E  E
--------------------------|--------------------------|
--------------------------|--------------------------|
--2--2--2--2--2--2--2--2--|--------------------------|
--------------------------|--3--3--3--3--3--3--3--3--|


  E  E  E  E  E  E  E  E     E  E  E  E  E  E  E  E
--------------------------|--------------------------|
--0--0--0--0--0--0--0--0--|--------------------------|
--------------------------|--------------------------|
--------------------------|--2--2--2--2--2--2--2--2--|


  E  E  E  E  E  E  E  E     E  E  E  E  E  E  E  E
--------------------------|--------------------------|
--------------------------|--------------------------|
--2--2--2--2--2--2--2--2--|--------------------------|
--------------------------|--3--3--3--3--3--3--3--3--|


  E  E  E  E  E  E  E  E     E  E  E  E  E  E  E  E
--------------------------|--------------------------|
--------------------------|--------------------------|
--0--0--0--0--0--0--0--0--|--2--2--2--2--2--2--2--2--|
--------------------------|--------------------------|


  E  E  E  E  E  E  E  E     E  E  E  E  E  E  E  E
--------------------------|--------------------------|
--------------------------|--------------------------|
--0--0--0--0--0--0--0--0--|--2--2--2--2--2--2--2--2--|
--------------------------|--------------------------|


  E  E  E  E  E  E  E  E     E  E  E  E  E  E  E  E
--------------------------|--------------------------|
--------------------------|--------------------------|
--0--0--0--0--0--0--0--0--|--2--2--2--2--2--2--2--2--|
--------------------------|--------------------------|


  E  E  E  E  E  E  E  E     E  E  E  E  E  E  E  E
--------------------------|--------------------------|
--------------------------|--------------------------|
--------------------------|--0--0--0--0--0--0--0--0--|
--3--3--3--3--3--3--3--3--|--------------------------|


  SOLO
  E    E  E  E  E  E  E  E     E  E  E  E  E  E  E  E
----------------------------|--------------------------|
--0----0--0--0--0--0--0--0--|--------------------------|
----------------------------|--------------------------|
----------------------------|--2--2--2--2--2--2--2--2--|


  E  E  E  E  E  E  E  E     E  E  E  E  E  E  E  E
--------------------------|--------------------------|
--------------------------|--------------------------|
--2--2--2--2--2--2--2--2--|--------------------------|
--------------------------|--3--3--3--3--3--3--3--3--|


  E  E  E  E  E  E  E  E     E  E  E  E  E  E  E  E
--------------------------|--------------------------|
--0--0--0--0--0--0--0--0--|--------------------------|
--------------------------|--------------------------|
--------------------------|--2--2--2--2--2--2--2--2--|


  E  E  E  E  E  E  E  E     E  E  E  E  E  E  E  E
--------------------------|--------------------------|
--------------------------|--------------------------|
--2--2--2--2--2--2--2--2--|--------------------------|
--------------------------|--3--3--3--3--3--3--3--3--|


  CORO
  E    E  E  E  E  E  E  E     E  E  E  E  E  E  E  E
----------------------------|--------------------------|
--0----0--0--0--0--0--0--0--|--------------------------|
----------------------------|--------------------------|
----------------------------|--2--2--2--2--2--2--2--2--|


  E  E  E  E  E  E  E  E     E  E  E  E  E  E  E  E
--------------------------|--------------------------|
--------------------------|--------------------------|
--2--2--2--2--2--2--2--2--|--------------------------|
--------------------------|--3--3--3--3--3--3--3--3--|


  E  E  E  E  E  E  E  E     E  E  E  E  E  E  E  E
--------------------------|--------------------------|
--0--0--0--0--0--0--0--0--|--------------------------|
--------------------------|--------------------------|
--------------------------|--2--2--2--2--2--2--2--2--|


  E  E  E  E  E  E  E  E     E  E  E  E  E  E  E  E
--------------------------|--------------------------|
--------------------------|--------------------------|
--2--2--2--2--2--2--2--2--|--------------------------|
--------------------------|--3--3--3--3--3--3--3--3--|


  E  E  E  E  E  E  E  E     E  E  E  E  E  E  E  E
--------------------------|--------------------------|
--0--0--0--0--0--0--0--0--|--------------------------|
--------------------------|--------------------------|
--------------------------|--2--2--2--2--2--2--2--2--|


  E  E  E  E  E  E  E  E     E  E  E  E  E  E  E  E     E
--------------------------|--------------------------|-----|
--------------------------|--------------------------|-----|
--2--2--2--2--2--2--2--2--|--------------------------|--0--|
--------------------------|--3--3--3--3--3--3--3--3--|-----|
Calificar esta versión:
Aviso: Este fichero es trabajo propio de su transcriptor y representa su interpretación personal de la canción. El material contenido en esta página es para exclusivo uso privado, por lo que se prohibe su reproducción o retransmisión, así como su uso para fines comerciales.
Más versiones de Un Vicio Caro Es El Amor, Dildo
Un Vicio Caro Es El Amor
acordes
Un Vicio Caro Es El Amor
tablatura
Un Vicio Caro Es El Amor (ver 2)
tablatura
Un Vicio Caro Es El Amor
bajo
Descubre más canciones de Dildo