Un Vicio Caro Es El Amor, Dildo (tablatura)

Autor: Anónimo | 41872 visualizaciones

Esta pieza se la dedico a mi amiga Mariana Zambrano en Maracay
Disfrútenla...

Intro
C Am E F-Fm  x 3

e|----5b7--5----5--------5b7--5---------------------------------------|
b|------------8-------8----------8--5-------5--6--6--6--8--6--8--5----|
g|----------------------------------------7---------------------------|
d|--------------------------------------------------------------------|
a|------------------------------------------------------------------- |
e|--------------------------------------------------------------------|
se toca a la segunda y tercera vez del intro


C             Am
El humo es espeso
            E
no me deja ver
     F                       C
no creo que ella vaya a volver
C        Am                   E
noches eternas bañadas de alcohol
      F                       C
y es todo tan incierto hasta hoy


C            Am
Estoy en el fondo
            E
no puedo salir
   F                     C
estoy tan condenado a morir
C              Am               E
La vida es el precio para mantener
    F                        G
el vicio que me tiene hasta hoy

G
si saber a donde voy


D       F#               Bm
Como vivir tan lejos de ti
            G
solo adorame, solo adorame
D              F#               Bm
Que importa morir si ya estuve aqui
             G
solo adorame, solo adorame
    A          G           A
y asi poder saber a donde ir,
       A
solo adorameee


 C Am E F-Fm x 2

 e|----5b7--5----5--------5b7--5------------------------------------|
b|------------8-------8----------8--5-------5--6--6--6--8--6--8--5--|
g|----------------------------------------7------------------------ |
d|------------------------------------------------------------------|
a|------------------------------------------------------------------|
e|------------------------------------------------------------------|


C               Am
El tiempo es espeso
            E
no me deja ver
     F                        C
no creo que ella pueda entender
C             Am                E
que vivo despierto en dias sin sol
      F                        C
y es todo tan incierto hasta hoy


C            Am
Estoy en el fondo
            E
no puedo salir
   F                      C
estoy tan condenado a sufrir
C               Am                    E
La vida es el precio que habra que pagar
   F                  G
para poder tenerte aqui
               G
sin saber a donde ir



D       F#               Bm
Como vivir tan lejos de ti
             G
solo adorame, solo adorame
D              F#               Bm
Que importa morir si ya estuve aqui
              G                A
solo adorame, solo adorame
          Bm           A
Podre saber quien eres
             Bm       A
puedo hacer sacrificios
          Bm
puedo no ser el mismo
G
pero hoy


    A
un vicio caro es el amor

D   F#  Bm  G


e|-----------0-------------------------0----------------|
b|-----0--3-----3--3--3--3-------0--3-----2--2--2--2----|
g|---2------------------------2------------------------|
d|------------------------------------------------------|
a|-----------------------------------------------------|
e|------------------------------------------------------|
e|-----------0--2--2--2--2--2--0-----0---------------------|
b|-----0--3-----------------------3-----3--3--3--3---------|
g|--2------------------------------------------------------|
d|---------------------------------------------------------|
a|---------------------------------------------------------|
e|---------------------------------------------------------|

se toca durante el siguiente coro hasta que termine la canción


D       F#               Bm
Como vivir tan lejos de ti
             G
solo adorame, solo adorame
D              F#               Bm
Que importa morir si ya estuve aqui
             G
solo adorame, solo adorame
D              F#
solo adorame, solo adorame


Bm                      G    A  D
solo adorame, solo adorame...
 e|-----------0-----|
 b|-----0--3-----3--| y al final termina con este
 g|---2-------------|
 d|-----------------|
 a|-----------------|
 e|-----------------|
Calificar esta versión:
Aviso: Este fichero es trabajo propio de su transcriptor y representa su interpretación personal de la canción. El material contenido en esta página es para exclusivo uso privado, por lo que se prohibe su reproducción o retransmisión, así como su uso para fines comerciales.
Más versiones de Un Vicio Caro Es El Amor, Dildo
Un Vicio Caro Es El Amor
acordes
Un Vicio Caro Es El Amor
tablatura
Un Vicio Caro Es El Amor (ver 2)
tablatura
Un Vicio Caro Es El Amor
bajo
Descubre más canciones de Dildo