Dixie, Dildo (tablatura)

Autor: sirius | 40929 visualizaciones

Verso (dist)

    E5       C#5      A5       B5
e -------------------------------------
B -------------------------------------
G --9--------6-------------------------    
D --9-(x16)--6-(x16)--7--------9-------
A --7--------4--------7-(x16)--9-(x16)-
E --------------------5--------7-------

  el verso va 2 veces, solo cambia un poco el ritmo al ultimo pero sigue 
  en la misma nota. Oigan la canción para tocar ese pedazo bien.


  Coro

    A5      C5       E5
e ---------------------------------------
B ---------------------------------------
G -----------5-5-555---------------------
D --7-7-7777-5-5-555-2---2222-2--2222-2--
A --7-7-7777-3-3-333-2---2222-2--2222-2--
E --5-5-5555---------0---0000-0--0000-0--
P.M.                     ...     ...
  
  Esto va 3 veces y la cuarta le quitas lo de los Palm muted y dejas
  sonar E hasta que entre el verso.

  Luego hay un pequeño cacho que va así: creo que va con delay.

    B5    D5    C#5   C5
e --------------------------
B --------------------------
G ----4-----7-----6-----5---  Esto va 5 veces
D ---4-4---7-7---6-6---5-5--
A --2-----5-----4-----3-----
E --------------------------

    B5  D5  E5
e --------------
B --------------
G --4~--7~--9~--        Esto va una vez con delay
D --4~--7~--9~--        y otras dos con dist
A --2~--2~--7~--
E --------------


  Lo ultimo va como el verso y acaba en E5.

Comentarios del colaborador: 5-MENTARIOS

Calificar esta versión:
Aviso: Este fichero es trabajo propio de su transcriptor y representa su interpretación personal de la canción. El material contenido en esta página es para exclusivo uso privado, por lo que se prohibe su reproducción o retransmisión, así como su uso para fines comerciales.
Más versiones de Dixie, Dildo
Dixie
acordes
Dixie (ver 2)
acordes
Dixie
tablatura
Dixie
bajo
Dixie
bateria
Descubre más canciones de Dildo