Dixie, Dildo (bajo)

Autor: sirius | 39824 visualizaciones

“DIXIE”
DILDO



G------------------------------------------------
D------------------------------------------------
A---7(x16)----4(x16)-----------------------------
E---------------------0--5(x16)----7(x12)--7-7—7-

G---------------------------------------------
D---------------------------------------------
A---0--0-0-0--3--3-3-3------------------------
E--------------------------0-0---0-0-0--------

G---------------------------------------------
D---------------------------------------------
A---0-2(x8)--0-5(x8)--0-4(x8)--0-3(x8)--------
E---------------------------------------------


G---------------------------------------------
D---------------------------------------------
A--0-2-2-2--0-5-5-5--0-7----------------------
E------------------------0--0-0-0-------------

Comentarios del colaborador: 5-MENTARIOS

Calificar esta versión:
Aviso: Este fichero es trabajo propio de su transcriptor y representa su interpretación personal de la canción. El material contenido en esta página es para exclusivo uso privado, por lo que se prohibe su reproducción o retransmisión, así como su uso para fines comerciales.
Más versiones de Dixie, Dildo
Dixie
acordes
Dixie (ver 2)
acordes
Dixie
tablatura
Dixie
bajo
Dixie
bateria
Descubre más canciones de Dildo