Dixie, Dildo (acordes) (ver 2)

Autor: BREBAJE | 33445 visualizaciones

a5b5csos5c5d5e5
E5     C#5      A5     B5
E|----------------------------------|
B|----------------------------------|
G|--9-------6-----------------------|
D|--9-------6-------7-------9-------|
A|--7-------4-------7-------9-------|
E|------------------5-------7-------|

      E5                          C#5
Y vuelas libre a donde tu mente lo pide
               A5
no mas dolor de rodillas
                     B5
no tienes que disimular esta vez

     E5                        C#5
Y ahora las notas que nunca has tocado
                      A5
son las que inundan el cuarto
                         B5
lo puedes sentir nunca fue tan real

[Esto se repite varias veses]
      A5        C5     E5
G|--2---2--X--2--5----------------------------|
D|--2---2--X--2--5----2--2--X--2--2---2-----2-|
A|--0---0--X--0--3----2--2--X--2--2---2-----2-|
E|--------------------0--0--X--0--0---0-----0-|

[Esto se ace asta cuando dice "una con el sol"]
      A5        C5   E5
G|--2---2--X--2--5--------|
D|--2---2--X--2--5----2---|
A|--0---0--X--0--3----2---|
E|--------------------0---|

Hoy te llamaran por tu nombre,
hoy vas a cobrar puro amor,
Hoy miras de frente al horizonte,
hoy te haras una con el Sol 

Y vuelas libre a donde tu mente lo pide
               A5
no mas dolor de rodillas
                     B5
no tienes que disimular esta vez

     E5                        C#5
Y ahora las notas que nunca has tocado
                      A5
son las que inundan el cuarto
                         B5
lo puedes sentir nunca fue tan real

[Esto se repite varias veses]
     A5         C5               E5
G|--2---2--X--2--5----------------------------|
D|--2---2--X--2--5----2--2--X--2--2---2-----2-|
A|--0---0--X--0--3----2--2--X--2--2---2-----2-|
E|--------------------0--0--X--0--0---0-----0-|

[Esto se ace asta cuando dice "una con el sol"]
     A5         C5   E5
G|--2---2--X--2--5--------|
D|--2---2--X--2--5----2---|
A|--0---0--X--0--3----2---|
E|--------------------0---|

Hoy te llamaran por tu nombre,
hoy vas a cobrar puro amor,
Hoy miras de frente al horizonte,
hoy te haras una con el Sol 

         B5          D5          C#5          C5
G|--------4-----------7-----------6------------5--|
D|-----4-----4-----7-----7-----6-----6------5---5-|
A|--2-----------5-----------4------------3--------|
E|------------------------------------------------|

Pero es metira el sol no brilla
y sales de noche,
todo es un sueño,
todo es tan falso,
todo es tan frivolo

[Esto se toca cuando dice el primer renglon]
   E5        B5       D5
|-------------4--------7---|G
|-2--2--------4--------7---|D
|-2--2--------2--------5---|A
|-0--0---------------------|E
[Esto se toca con los otros dos renglones]
 E5       B5       D5       E5
|----------4--------7-----------|G
|-2--------4--------7--------2--|D
|-2--------2--------5--------2--|A
|-0--------------------------0--|E
esta es una noche subliminal,
esta es una noche subliminal
esta es  una noche subliminal

      E5                                     C#5
y vuelaaaaaaaaaaaaaaaaaaaaaaaaaaaaaaaaaaaaaaaaaas...
      A5                                      B5
y vuelas libreeeeeeeeeeeeeeeeeeeeeeeeeeeeeeeeeeee


     E5                          C#5
Y vuelas libre a donde tu mente lo pide
               A5
no mas dolor de rodillas
                     B5
no tienes que disimular esta vez

     E5                        C#5
Y ahora las notas que nunca has tocado            E5
                      A5                        |--2--|D
son las que inundan el cuarto                   |--2--|A
                         B5           A5   B5   |--0--|E
lo puedes sentir nunca fue tan real...aaah,aaah,aaaaaah
Calificar esta versión:
Aviso: Este fichero es trabajo propio de su transcriptor y representa su interpretación personal de la canción. El material contenido en esta página es para exclusivo uso privado, por lo que se prohibe su reproducción o retransmisión, así como su uso para fines comerciales.
Más versiones de Dixie, Dildo
Dixie
acordes
Dixie (ver 2)
acordes
Dixie
tablatura
Dixie
bajo
Dixie
bateria
Descubre más canciones de Dildo