Tal Vez, Dalevuelta (tablatura) (ver 2)

Autor: Anónimo | 22649 visualizaciones



ya este tab es brabote y esta correcto asi ke aki les va

[INTRO:]

e|--------------------------------------------------|
B|----3-----3---3-----3---3-----3----3------3-------|
G|----2-----2---2-----2---2-----2----2------2-------|
D|--0---0-0-----------------------------------------|
A|-------------2---2-2-------------0----0-0---------|
E|-----------------------3---3-3--------------------|

Aca se pone sabrosa la cosa

e|-------------------------------------------------|
B|5-3-2/3--5-3-2/3--5-3-2/3--5-3-2/3-0-------2-3-3-|
G|-------------------------------------2-2-4-------|
D|-------------------------------------------------|
A|-------------------------------------------------|
E|-------------------------------------------------|

VERSO

D5                                                   B5
En donde te encuentres sé ke estás sintiéndote muy sola...
   G5                                               A5
rekordando a diario el día en ke tu amor me traicionó

D5                                               B5
Sé ke cuando duermes, en las noches te sigue mi sombra...
       G5                                      A5
preguntando las preguntas ke tu amor no contestó...

    
     F#5              G5     A5
Talvez el daño está hecho, pero no te culpo...
            D5
nunka conocistes el amor....

ohhh ohhh ohhhh...


ya eso es todo.todo se repite varias veces ahora que ya tienen la guitarra 
les voy a mandar el bajo tb correctos cualkier cosa manden un mail.
si tocan guitarra o bajo(de preferencia este ultimo con instrumento y que 
tenga entre 13 a 16 que le guste el punk y que viva por surco manden un mail
ps saludos a mellygeorge,analva,cholo,chorro aurelio,condorlucho y anadie mas

Fuente original: LaCuerda
Colaborador original: Danniel C T [d_cabrerat@hotmail.com]





Calificar esta versión:
Aviso: Este fichero es trabajo propio de su transcriptor y representa su interpretación personal de la canción. El material contenido en esta página es para exclusivo uso privado, por lo que se prohibe su reproducción o retransmisión, así como su uso para fines comerciales.
Más versiones de Tal Vez, Dalevuelta
Tal Vez
tablatura
Tal Vez (ver 2)
tablatura
Tal Vez
bajo
Descubre más canciones de Dalevuelta