Tal Vez, Dalevuelta (bajo)

Autor: Anónimo | 45959 visualizaciones



El intro es bien locazo
xD cuando lo toquen
toquenlo con ganas pues


Intro

|---------------------|
|-4-4-4-4-4-5-5-5-7-7-|
|---------------------|
|---------------------|

|-------------------|
|-4-4-4-4-4-5-4-7-4-|
|-------------------|
|-------------------|

|---------------------|
|-1-1-1-1-1-2-2-2-4-4-|
|---------------------|
|---------------------|

|-------------------|
|-1-1-1-1-1-2-1-4-1-|
|-------------------|
|-------------------|

|-------------------------------|
|-------------------------------|
|-2-2-2-2-2-2-2-2-2-5-2-2-3-2-2-|
|-------------------------------|

|-------------------------------|
|-------------------------------|
|-4-4-4-4-4-4-4-4-4-7-4-4-5-4-4-|
|-------------------------------|


Verso

|-------------------------|
|-------------------------|
|-5(16)-2(16)-------------|
|-------------3(16)-5(16)-|


Coro

|-----------------------------|
|-----------------------------|
|-------------------4-2-1-2-1-|
|-2-2-2-2-2-2-2-2-2-----------|

|-----------------------------|
|-----------------------------|
|-------------------5-3-2-3-2-|
|-3-3-3-3-3-3-3-3-3-----------|

|-----------------------------|
|-----------------------------|
|-------------------7-5-4-5-4-|
|-5-5-5-5-5-5-5-5-5-----------|

|-------------------------|
|-------------------------|
|-5-5-4-5-5-5-------------|  x3
|-------------3-3-3-5-5-5-|

|-----------|
|-----------|
|-5-5-4-5-5-|  x3
|-----------|

jeje
ahora me apunto con los bajos
xD

Fuente original: LaCuerda
Colaborador original: Marco Feijoo [he_korn@hotmail.com]





Calificar esta versión:
Aviso: Este fichero es trabajo propio de su transcriptor y representa su interpretación personal de la canción. El material contenido en esta página es para exclusivo uso privado, por lo que se prohibe su reproducción o retransmisión, así como su uso para fines comerciales.
Más versiones de Tal Vez, Dalevuelta
Tal Vez
tablatura
Tal Vez (ver 2)
tablatura
Tal Vez
bajo
Descubre más canciones de Dalevuelta