Tal Vez, Dalevuelta (tablatura)

Autor: Anónimo | 44888 visualizaciones



Esto nomas faltaba
para completar la cancion


Solo

|----------------------------|
|----------------------------|
|---7~-----7~------7~-----7~-|
|-7----7--------------5/7----|
|--------9----9/10-----------|
|----------------------------|

|--------------------|
|--------------------|
|-9-7-6/7~-7/9-7-6-7-|
|--------------------|  x3
|--------------------|
|--------------------|

|-------------------|
|-------------------|
|----------6-7-7-7~-|
|-9~-7-7-9----------|
|-------------------|
|-------------------|

ahora si pues
sale con todo no?

Fuente original: LaCuerda
Colaborador original: Marco Feijoo [he_korn@hotmail.com]





Calificar esta versión:
Aviso: Este fichero es trabajo propio de su transcriptor y representa su interpretación personal de la canción. El material contenido en esta página es para exclusivo uso privado, por lo que se prohibe su reproducción o retransmisión, así como su uso para fines comerciales.
Más versiones de Tal Vez, Dalevuelta
Tal Vez
tablatura
Tal Vez (ver 2)
tablatura
Tal Vez
bajo
Descubre más canciones de Dalevuelta