Colgando En Tus Manos, Carlos Baute (tablatura) (ver 2)

Autor: RODRIGO125 | 18441 visualizaciones

INTRO:
   F#        C#        D#m       Bm      C#  
e---------|------4--|------6--|------------------|
B------2--|------6--|------7--|-----4-------6----|
G------3--|----6----|----8----|-----4-------6----|
D----4----|---6-----|---8-----|---4---4---6---6--|
A---4-----|--4------|--6------|--2-------4-------|
E--2------|---------|---------|------------------|

   F#                  C#
e--------------------------4---------------------|
B------2-------------------6---------------------|
G------3-----------------6-----------------------|
D----4------------------6------------------------|
A---4------------------4-------------------------|
E--2---------------------------------------------|
      Quiza no fue coincidencia encontrarme contigo
   D#m           Bm      C#              F#
e------6----|--------------------|--------------|
B------7----|-------4-------6----|-----------2--|
G----8------|-------4-------6----|-----------3--|
D---8-------|-----4---4---6---6--|---------4----|
A--6--------|----2-------4-------|--------4-----|
E-----------|--------------------|-------2------|
          Tal vez esto lo hizo el destino
             C#                       D#m
e----------------4------------------------6-----|
B----------------6------------------------7-----|
G--------------6------------------------8-------|
D-------------6------------------------8--------|
A------------4------------------------6---------|
E-----------------------------------------------|
   Quiero dormirme de nuevo en tu pecho
        Bm          C#                F#
e-------------------------------------2---------|
B-------------4-----------6-----------2---------|
G-------------4-----------6-----------3---------|
D----------4-----4-----6-----6--------4---------|
A--------2----------4-----------------4---------|
E-------------------------------------2---------|
  Y después me despierten tus besos
              C#               D#m
e-------------4---4------------6---6------------|
B-------------6---6------------7---7------------|
G-------------6--6-------------8--8-------------|
D-------------6----------------8----------------|
A-------------4----------------6----------------|
E-------------x----------------x----------------|
  Tu sexto sentido sueña conmigo
           Bm         C#             F#
e----------2----------4--------------2----------|
B----------4----------6--------------2----------|
G----------4----------6--------------3----------|
D----------4----------6--------------4----------|
A----------2----------4--------------4----------|
E----------x----------x--------------2----------|
  Se que pronto estaremos unidos

                   C#               D#m
e------------------4---4------------6---6-------|
B------------------6---6------------7---7-------|
G------------------6--6-------------8--8--------|
D------------------6----------------8-----------|
A------------------4----------------6-----------|
E------------------x----------------x-----------|
  Esa sonrisa traviesa que vive conmigo
           Bm         C#
e----------2----------4-------------------------|
B----------4----------6-------------------------|
G----------4----------6-------------------------|
D----------4----------6-------------------------|
A----------2----------4-------------------------|
E----------x----------x-------------------------|
  Se que pronto estaré en tu camino


D#m              A#m                 B
Sabes que estoy colgando en tus manos
      F#      C#    D#m
Así que no me dejes caer
        A#m     B     F#                   C#
Sabes que estoy      colgando en tus manos.


F#       C#                   G#m
Te envió poemas de mi puño y letra
             B       C#   F#
Te envió canciones de 4-40
             C#                   G#m
Te envió las fotos cenando en Marbella
             B      C#       F#
Y cuando estuvimos por Venezuela
            C#                   G#m
Y así me recuerdes y tengas presente
           B            C#             F#
Que mi corazón esta colgando en tus manos
       C#      G#m             B         C#
Cuidado, cuidado que mi corazón esta colgando en tus manos.

e---------|------4--|------6--|------------------|
B------2--|------6--|------7--|-----4-------6----|
G------3--|----6----|----8----|-----4-------6----|
D----4----|---6-----|---8-----|---4---4---6---6--|
A---4-----|--4------|--6------|--2-------4-------|
E--2------|---------|---------|------------------|

F#                    C#                  D#m
No perderé la esperanza de hablar contigo,
         B       C#
No me importa que dice el destino.

e---------|
B------2--|
G------3--|
D----4----|
A---4-----|
E--2------|



          C#                  D#m
Quiero tener tu fragancia conmigo,
    B        C#           D#m
Y beberme de ti lo prohibido.

                 A#m                 B
Sabes que estoy colgando en tus manos
      F#      C#    D#m
Así que no me dejes caer
        A#m     B     F#                   C#
Sabes que estoy      colgando en tus manos.


F#       C#                   G#m
Te envió poemas de mi puño y letra
             B       C#   F#
Te envió canciones de 4-40
             C#                   G#m
Te envió las fotos cenando en Marbella
             B      C#       F#
Y cuando estuvimos por Venezuela
                  C#                   G#m
Y así y asi me recuerdes y tengas presente
           B            C#             F#
Que mi corazón esta colgando en tus manos  (cuidado)
       C#
Cuidado,(mucho cuidado) cuidado
G#m              B
Ay! que yo te digo me tienes-

(OJO!!! LA PARTE QUE SIGUE ES MUY RAPIDA, ASI QUE ESCUCHEN MUY BIEN
LA CANCION PARA QUE LE ENTIENDAN)


 C#        F#                        C#             G#m
e-------------------------------------------------------|
B--------------------9--9h11--11h12--11--9--9h11--9-----|
G--------------9--10--------------------------------11--|
D--------9--11------------------------------------------|
A--9--11------------------------------------------------|
E-------------------------------------------------------|
-en tus manos        (cuidado, mucho cuidado)


No importa que diga el desti-

   B                 C#                 F#           C#
e-----------9-11--11-9-11-13-11-13-13s14--16-14-12h13-13-14-16---
B-11-9--9-11-----------------------------------------------------
G-----11---------------------------------------------------------
D----------------------------------------------------------------
A----------------------------------------------------------------
E----------------------------------------------------------------
  -no,                quedate       conmigo                    Lo quiero

  G#m               B               C#                  F#
e--------------------11-9-----9----------------------------------
B------------------------12-11-12-11-9-12-11-9--11-9-------------
G---------------------------------------------11----11-10-11-----
D----------------------------------------------------------------
A----------------------------------------------------------------
E----------------------------------------------------------------
  Todo de ti,  tus labios,      tu cariño,     lo prohibido.

e---------9--9-11-9-11s16-14-13-14-16-11-------------------------
B-----9-11-11---------------------------12-11--11s12-11--11-12-
G---11----------------------------------------11-------11--------
D-----------------------------------------------------------13-
A----------------------------------------------------------------
E----------------------------------------------------------------

e---------|
B11-9-9s11|
G11-9-9s11|
D---------|
A---------|
E---------|


F#       C#                   G#m
Te envió poemas de mi puño y letra
             B       C#   F#
Te envió canciones de 4-40
             C#                   G#m
Te envió las fotos cenando en Marbella
             B      C#       F#
Y cuando estuvimos por Venezuela
            C#                   G#m
Y así me recuerdes y tengas presente
           B            C#             F#
Que mi corazón esta colgando en tus manos
       C#      G#m             B         C#
Cuidado, cuidado que mi corazón esta colgando en tus manos.


e--------------------------4---------------------|
B------2-------------------6---------------------|
G------3-----------------6-----------------------|
D----4------------------6------------------------|
A---4------------------4-------------------------|
E--2---------------------------------------------|
      Que mi corazón esta colgando en tus manos

e------6--------------------------------------2--|
B------7-----------------4-------6------------2--|
G----8-------------------4-------6------------3--|
D---8------------------4---4---6---6----------4--|
A--6------------------2-------4---------------4--|
E------------------------------------------------|
      Que mi corazón esta colgando en tus manos
Calificar esta versión:
Aviso: Este fichero es trabajo propio de su transcriptor y representa su interpretación personal de la canción. El material contenido en esta página es para exclusivo uso privado, por lo que se prohibe su reproducción o retransmisión, así como su uso para fines comerciales.