Colgando En Tus Manos, Carlos Baute (acordes) (ver 5)

Autor: Molotov | 21275 visualizaciones

bcddmfggm
vaks pues aki les dejo este muy buen tab yo le doy un 8.5 por q la neta no es tan exacto pero espero y les sirva okis?? karmara...

Canción: Colgando En Tus Manos
Autor: Carlos Baute
Álbum: De Mi Puño y Letra
Armonizada en: Fmaj 

   F           G           C     C#add9+/5-  C
E--------------------------------------------------
B--------------------------------------------------
G-----------2--------4--------0-----------------0--
D--------3---------5--------2---------3-------2----
A-----3----------5--------3--------4--------3------
E?-1-----------3--------0--------0--------0--------X3

F                  C                   Dm
Quizá no fue coincidencia encontrarme contigo,
         B      C            F
Tal vez esto lo hizo el destino.
F        C                      Dm
Quiero dormirme de nuevo en tu pecho
        B       C             F
Y después me despierten tus besos.


F           C             Dm
Tu sexto sentido sueña conmigo
        B        C        F
Sé que pronto estaremos unidos.
F               C                 Dm
Esa sonrisa traviesa que vive conmigo
         B        C          Dm
Sé que pronto estaré en tu camino.


D               C                  B 
Sabes q estoy colgando en tus manos
      F           Dm
Así q no me dejes caer
          C     B     F                   C
Sabes que estoy      colgando en tus manos.


F        C                 Gm
Te envió poemas de mi puño y letra
              B        F
Te envió canciones de 4.40
F            C                  Gm
Te envió las fotos cenando en Marbella
              B             F
Y cuando estuvimos por Venezuela
            C                  Gm
Y así me recuerdes y tengas presente
           B                          F
Que mi corazón esta colgando en tus manos

        C       D           B                         F
Cuidado, cuidado que mi corazón esta colgando en tus manos.

   F           G           C     C#add9+/5-  C
E--------------------------------------------------
B--------------------------------------------------
G-----------2--------4--------0-----------------0--
D--------3---------5--------2---------3-------2----
A-----3----------5--------3--------4--------3------
E?-1-----------3--------0--------0--------0--------X3

F                 C                    D
No perderé la esperanza de hablar contigo,
          B      C           F
No me importa que diga el destino.
F         C                   D
Quiero tener tu fragancia conmigo,
     B       C            D
Y beberme de ti lo prohibido.

D               C                  B 
Sabes q estoy colgando en tus manos
      F           Dm
Así q no me dejes caer
          C     B     F                   C
Sabes que estoy      colgando en tus manos.


F        C                 Gm
Te envió poemas de mi puño y letra
              B        F
Te envió canciones de 4.40
F            C                  Gm
Te envió las fotos cenando en Marbella
              B             F
Y cuando estuvimos por Venezuela
                C                  Gm
Y así, así me recuerdes y tengas presente
           B                          F
Que mi corazón esta colgando en tus manos

        C       D           B                         F
Cuidado, cuidado que mi corazón esta colgando en tus manos.

F     C
Cuidado, mucho cuidado,




Solo:
E--------------------------10-12-10-11-12/14?12-14---14-12-15--
B-10---10-12-13?13-10-12---------------------------------------
G--------------------------------------------------------------
D--------------------------------------------------------------
A--------------------------------------------------------------
E--------------------------------------------------------------


E-13-11-13/15---10/12-12-13-12-14-13-14-13-15-14-15-16/17---
B-----------------------------------------------------------
G-----------------------------------------------------------
D-----------------------------------------------------------
A-----------------------------------------------------------
E-----------------------------------------------------------
F        C                 Gm
Te envió poemas de mi puño y letra
              B        F
Te envió canciones de 4.40
F            C                  Gm
Te envió las fotos cenando en Marbella
              B             F
Y cuando estuvimos por Venezuela
                C                  Gm
Y así, así me recuerdes y tengas presente
           B                          F
Que mi corazón esta colgando en tus manos

        C       D           B                         F
Cuidado, cuidado que mi corazón esta colgando en tus manos.

        C       D           B                         F
Cuidado, cuidado que mi corazón esta colgando en tus manos.

F     C
Cuidado, mucho cuidado,

F           G           C     C#add9+/5-  C
E--------------------------------------------------
B--------------------------------------------------
G-----------2--------4--------0-----------------0--
D--------3---------5--------2---------3-------2----
A-----3----------5--------3--------4--------3------
E?-1-----------3--------0--------0--------0--------X3


camara me larwo espero les guste a los acordes del intro estan al 99.9%correctos a si desean un buen efecto punteen la 
ultimanota junto con la de abajo, por ejemplo en el la5 se punta junto con el Si5 vazquez??

Comentarios del colaborador: ps mi oido je je

Calificar esta versión:
Aviso: Este fichero es trabajo propio de su transcriptor y representa su interpretación personal de la canción. El material contenido en esta página es para exclusivo uso privado, por lo que se prohibe su reproducción o retransmisión, así como su uso para fines comerciales.