Colgando En Tus Manos, Carlos Baute (tablatura)

Autor: ezzewn | 36991 visualizaciones

Intro:
e-------2-----------4-------------6--------------------------|
B-------2--------6--6---------7---7--------------2---------4-|
G----3----------6----------8-------------------4--------6----|
D---4--------------------8------------------4--------6-------|
A--4---------4-----------------------------------------------|
E------------------------------------------------------------|

''quizás no fue coincidencia encontrarme contigo''
e-------2-----------4-------------6------------------------|
B-------2--------6--6---------7---7------------------------|
G----3----------6----------8-------------------------------|
D---4--------------------8---------------------------------|
A--4---------4---------------------------------------------|
E----------------------------------------------------------|


Tal vez esto lo hizo el destino.
e------------------------------------------------------|
B-----------2----------4-------------------------------|
G--------4-----------6---------------------------------|
D------4-----------6-----------------------------------|
A------------------------------------------------------|
E------------------------------------------------------|

Quiero dormirme de nuevo en tu pecho
e-------2-----------4-------------6------------------------|
B-------2--------6--6---------7---7------------------------|
G----3----------6----------8-------------------------------|
D---4--------------------8---------------------------------|
A--4---------4---------------------------------------------|
E----------------------------------------------------------|

Y después me despierten tus besos.
e------------------------------------------------------|
B-----------2----------4-------------------------------|
G--------4-----------6---------------------------------|
D------4-----------6-----------------------------------|
A------------------------------------------------------|
E------------------------------------------------------|


(viene otros instrumentos pero ahora solo menciono guitarra)

Tu sexto sentido sueña conmigo
e-------2-----------4-------------6------------------------|
B-------2--------6--6---------7---7------------------------|
G----3----------6----------8-------------------------------|
D---4--------------------8---------------------------------|
A--4---------4---------------------------------------------|
E----------------------------------------------------------|

Sé que pronto estaremos unidos.

e------------------------------------------------------|
B-----------2----------4-------------------------------|
G--------4-----------6---------------------------------|
D------4-----------6-----------------------------------|
A------------------------------------------------------|
E------------------------------------------------------|

Esa sonrisa traviesa que vive conmigo
e-------2-----------4-------------6------------------------|
B-------2--------6--6---------7---7------------------------|
G----3----------6----------8-------------------------------|
D---4--------------------8---------------------------------|
A--4---------4---------------------------------------------|
E----------------------------------------------------------|

Sé que pronto estaré en tu camino.
e------------------------------------------------------|
B-----------2----------4-------------------------------|
G--------4-----------6---------------------------------|
D------4-----------6-----------------------------------|
A------------------------------------------------------|
E------------------------------------------------------|


despues viene una parte que aun no la se 

pero bueno eso es mas o menos para los que les gusta sacar las canciones en vesiones originales
Calificar esta versión:
Aviso: Este fichero es trabajo propio de su transcriptor y representa su interpretación personal de la canción. El material contenido en esta página es para exclusivo uso privado, por lo que se prohibe su reproducción o retransmisión, así como su uso para fines comerciales.