La Terraza, Caramelos De Cianuro (tablatura) (ver 2)

Autor: Anónimo | 18512 visualizaciones



La guitarra electrica tiene los mismos acordes.. pero es Recomendable
Tocar algunos acordes q en la cancion suena como con Distorsion
no con acordes normales sino con acordes en 5 o Acordes de Poder...

v= vibrato
-----------------------------------------------------------------

Intro: Em  Bm  Am  Em  G  D  C
       Em  Bm  Am  Em  G  D  C

        Con Wah-Wah y Distorsion
e|-------------------------------------------
B|-------------------------------------------
G|-------------------------------------------
D|-------------------------------------------
A|-5-7-7--5-7-7--5-7--5-7-7--5-7-7-----------
E|-------------------------------------------

        Con Wah-Wah y Distorsion
e|-------------------------------------------
B|-------------------------------------------
G|-------------------------------------------
D|-------------------------------------------
A|-5-7--5-7-7--5-7-7--5-7--5-7-7--5-7-7--5-7-
E|-------------------------------------------

        Con Wah-Wah y Distorsion
e|-------------------------------------------
B|-------------------------------------------
G|-------------------------------------------
D|-------------------------------------------
A|-5-7-7--5-7-7--5-7--5-7-7--5-7-7-----------
E|-------------------------------------------

         Con Wah-Wah y Distorsion
e|-------------------------------------------
B|-------------------------------------------
G|-------------------------------------------
D|-5---5vvvvv----5vvvvv----------------------
A|---7--------7-7--------7-------------------
E|-------------------------------------------


                     Em          Bm
Recuerdo que en las noches te solia silbar
Am           Em
desde la calle a la ventana
G             D
tu te escapabas bordeando
C
el oscuro jardin

Pre coro
                   Em              Bm
Quien sabe cuantas lunas contemplamos pasar
Am        Em
echados en la terraza
G          D
desde mi casa el cielo se sigue
C
Viendo casi igual

Coro
C      D       Em
     yo era tu mala influencia
C      D       Em
     tu fuistes mi princesa
C      D       Em               G         D
     siempre son fragiles las horas mas prefectas
C      D       Em
     quizas me invada la nostalgia
C      D       Em
     por un encuentro imposible
C      D       Em               G         D
     De las memorias solo atesoramos lo sublime


            Em             Bm
Y ahora todo el mundo me pregunta por ti
Am         Em
y yo no quiero explicarles
G        D
yo tengo animos de
C
parecer amable

Em  Bm  Am  Em  G  D  C

Pre coro
                   Em              Bm
Quien sabe cuantas lunas contemplamos pasar
Am        Em
echados en la terraza
G          D
desde mi casa el cielo se sigue
C
Viendo casi igual

Coro
C      D       Em
     yo era tu mala influencia
C      D       Em
     tu fuistes mi princesa
C      D       Em               G         D
     siempre son fragiles las horas mas prefectas
C      D       Em
     quizas me invada la nostalgia
C      D       Em
     por un encuentro imposible
C      D       Em               G         D
     De las memorias solo atesoramos lo sublime


G, D, Em, Bm, C, Cm

   G                 D
A pasado el tiempo esto es lo que siento
Em                   D
de lo que te digo dios es mi testigo
C
que con cada noche con cada mañana
Cm
con todos los minutos de todas las semanas

   G                     D
No dejo de pensar en lo que dijiste
Em                      D
no dejo de aferrarme a lo que me diste
C
no cambia lo que siento la distancia es como el viento
Cm
no es vivir en el pasado es quererte a mi lado

    G                       D
Es tan solo tratar de ser sincero con migo mismo
Em                   D
es tan solo tratar de llenar este vacio
C
que me carcome en las entrañas
Cm
que no me deja vivir  si  no estas junto a mi...
-----------------------------------------------------------------





Calificar esta versión:
Aviso: Este fichero es trabajo propio de su transcriptor y representa su interpretación personal de la canción. El material contenido en esta página es para exclusivo uso privado, por lo que se prohibe su reproducción o retransmisión, así como su uso para fines comerciales.
Más versiones de La Terraza, Caramelos De Cianuro
La Terraza
acordes
La Terraza (ver 2)
acordes
La Terraza (ver 3)
acordes
La Terraza
tablatura
La Terraza (ver 2)
tablatura
La Terraza
bajo
Descubre más canciones de Caramelos De Cianuro