La Terraza, Caramelos De Cianuro (tablatura)

Autor: Anónimo | 29095 visualizaciones



05-10-04
hola soy rafael serrano corrigiendo los tabs anteriores
que tenian errores en algunos acordes y les faltaban otros
este si esta perfecto:

intro:
acordes:

  Em Bm Am Em  G  D  C  C
e|-7--7--5--7--3--5--3--3--------------------
B|-8--7--5--8--3--7--5--5--------------------
G|-9--7--5--9--4--7--5--5--------------------
D|-9--9--7--9--5--7--5--5--------------------
A|-7--9--7--7--5--5--3--3--------------------
E|-7--7--5--7--3--5--3--3--------------------

e|-------------------------------------------
B|-------------------------------------------
G|-------------------------------------------
D|-------------------------------------------
A|-5-7-7--5-7-7--5-7--5-7-7--5-7-7-----------
E|-------------------------------------------


e|-------------------------------------------
B|-------------------------------------------
G|-------------------------------------------
D|-5---5vvvvv----5vvvvv----------------------
A|---7--------7---------7--------------------
E|-------------------------------------------

verso:
acordes:

  Em Bm Am Em  G  D  C  C
e|-0--2--0--0--3--2--0--0--------------------
B|-0--3--1--0--3--3--1--1--------------------
G|-0--4--2--0--0--2--0--0--------------------
D|-2--4--2--2--0--0--2--2--------------------
A|-2--2--0--2--2--0--3--3--------------------
E|-0--2--0--0--3--0--0--0--------------------

   Em                  Bm
Recuerdo que en las noches te solia silbar
   Am                   Em
Desde la calle a la ventana
   G                   D          C
Tú te escapabas bordeando el oscuro jardín

   Em                  Bm
Quién sabe cuantas lunas contemplamos pasar
   Am                   Em
Echados en la terraza
    G                   D          C
Desde mi casa el cielo se sigue viendo casi igual


coro:
acordes:

   C  D  Em Em          G  D  C  C
e|-0--2--0--0--       e-3--2--0--0--
B|-1--3--0--0--       B-3--3--1--1--
G|-0--2--0--0--  x2   G-0--2--0--0--
D|-2--0--2--2--       D-0--0--2--2--
A|-3--0--2--2--       A-2--0--3--3--
E|-0--0--0--0--       E-3--0--0--2--


 C         D        Em
Yo era tu mala influencia
 C         D        Em
Tú fuistes mi princesa
 G                   D          C
Siempre son frágiles las horas mas perfectas

 C         D        Em
Quizas me invada la nostalgia
 C         D        Em
Por un encuentro imposible
 G                   D          C
De las memorias sólo atesoramos lo sublime


verso#2:

   Em                  Bm
Ahora todo el mundo me pregunta por ti
   Am                   Em
Y yo no quiero explicarles
   G                   D          C
No tengo ánimos de parecer amable

   Em                  Bm
Quién sabe cuantas lunas contemplamos pasar
   Am                   Em
Echados en la terraza
   G                   D          C
Desde mi casa el cielo se sigue viendo casi igual


coro#2:

 C         D        Em
Yo era tu mala influencia
 C         D        Em
Tú fuistes mi princesa
 G                   D          C
Siempre son frágiles las horas mas perfectas

 C         D        Em
Quizas me invada la nostalgia
 C         D        Em
Por un encuentro imposible
 G                   D          C
De las memorias sólo atesoramos lo sublime

final:
acordes:
  G  F#m Em D  C  D#
e|-3--2--0--2--0--2--------------------------
B|-3--2--0--3--1--3--------------------------
G|-0--2--0--2--0--2--------------------------
D|-0--4--2--0--2--x--------------------------
A|-2--4--2--0--3--x--------------------------
E|-3--2--0--0--0--x--------------------------

 G                  F#m
Ha pasado el tiempo esto es lo que siento
 Em                  D
De lo que te digo DIOS es mi testigo
 C
Que con cada noche, que cada mañana
 D#
Que todos los minutos, que todas las semanas

 G                  F#m
No dejo de pensar en lo que dijistes
 Em                  D
No dejo de aferrarme a lo que me distes
 C
Y no cambia lo que siento, la distancia es como el viento,
 D#
No es vivir en el pasado quererte a mi lado

 G                  F#m
Es tan solo tratar de ser sincero conmigo mismo
 Em                  D
Es tan solo tratar de llenar este vacío
 C
Que me carcome las entrañas
 D#
Y no me deja vivir si no estas junto a mí


bueno este tab si esta perfecto, sin errores y ademas
todo esta mas especificado.

se la dedico a antonietta aunque tal ves
jamas vea esto esta fue la primera cancion
que me oyo tocar.





Calificar esta versión:
Aviso: Este fichero es trabajo propio de su transcriptor y representa su interpretación personal de la canción. El material contenido en esta página es para exclusivo uso privado, por lo que se prohibe su reproducción o retransmisión, así como su uso para fines comerciales.
Más versiones de La Terraza, Caramelos De Cianuro
La Terraza
acordes
La Terraza (ver 2)
acordes
La Terraza (ver 3)
acordes
La Terraza
tablatura
La Terraza (ver 2)
tablatura
La Terraza
bajo
Descubre más canciones de Caramelos De Cianuro