La Terraza, Caramelos De Cianuro (bajo)

Autor: Anónimo | 39896 visualizaciones



Bueno otra mas de los caramelos, esta es buena.....

NOTA: CUANDO PONGO > DESPUES DE UNA NOTA ES QUE HAY 
QUE REPETIRLA 8 VECES


Intro y Verso
G-----------------------------------|
D-----------------------------------|
A-----2>-0>--------5>-33-333-333-333|X4
E-0>---------0>-3>------------------|

Coro (se repite dos veces todo el coro)
G--------------------|  |-------|  
D--------------------|  |-------|  
A-3-3-3-3-5-5-5-5----|X3|-3>----|
E-----------------0>-|  |----5>-|  

Interludio
G-----------------------------------|
D-----------------------------------|
A-----2>-0>--------5>-33-333-333-333|X4
E-0>---------0>-3>------------------|

Coro (se repite dos veces todo el coro)
G--------------------|  |-------|  
D--------------------|  |-------|  
A-3-3-3-3-5-5-5-5----|X3|-3>----|
E-----------------0>-|  |----5>-|

Fin
G-----------------|
D-----------------|
A----------5>-3>>-|
E-3>-2>-0>--------|

Eso es todo cualquier duda escribanme a mi email...
califinquela...





Calificar esta versión:
Aviso: Este fichero es trabajo propio de su transcriptor y representa su interpretación personal de la canción. El material contenido en esta página es para exclusivo uso privado, por lo que se prohibe su reproducción o retransmisión, así como su uso para fines comerciales.
Más versiones de La Terraza, Caramelos De Cianuro
La Terraza
acordes
La Terraza (ver 2)
acordes
La Terraza (ver 3)
acordes
La Terraza
tablatura
La Terraza (ver 2)
tablatura
La Terraza
bajo
Descubre más canciones de Caramelos De Cianuro