Avientame, Caifanes (tablatura) (ver 3)

Autor: Anónimo | 20546 visualizaciones

La introducci¢n comienza con quintas en:
A ,  B  , C.  2 VECES,ESTA ES UNA EXELENTE ROLA NO PONGO LA LETRA 
PUES PARA TOCARLA LA TIENES QUE OIR.
 
  ESTE ES EL RIFF QUE ACOMPAÑA CASI TODA LA CANCION :
E-------------------------------------------------------------
B-------------------------------------------------------------
G-------------------------------------------------------------
D-7-9-10-9-7-9-10-9---7-9-10-9-7-9-10-9-----------------------
A------------------10------------------10---------------------
E-------------------------------------------------------------
                        A veces el riff lleva esta variaci¢n :
E---------------------|---------------------------------------
B---------------------|---------------------------------------
G----------7----------|--------7-9-10-9-7---------------------
D-7-9-10-7--10-9-10-9-|-7-9-10------------10------------------
A---------------------|---------------------------------------
E---------------------|---------------------------------------
  Este es el riff del coro:    Y AHORA EL 1er. SOLO :
E--------------------------|----------------------------------
B--------------------------|-10-12-12/13~-10-13-13~-----------
G--------------------------|------------------------12-12~----
D--------------------------|----------------------------------
A-9-7-9-7-10-9-7-9-7-------|----------------------------------
E--------------------------|----------------------------------

E------10--12-10-------------------------------------10---10-12
B-12-13--13-----13-12-13-13~-10-12-13~-10-12-13-12-13---13----
G-------------------------------------------------------------
D-------------------------------------------------------------
A-------------------------------------------------------------
E-------------------------------------------------------------

E-10--------13-----10----------------------------------------------
B---13-12-13--12-12--12-12-13-12-12-12-10--10-12-10-12-10-12-10-12-
G-------------12-12--12-12----12-12------12------------------------
D------------------------------------------------------------------
A------------------------------------------------------------------
E------------------------------------------------------------------

E------------------------------10-12-10-12-----12----10------------
B-10-12-10-12-12-13-12-13-12-13----------------------------10-9-10-
G--------------------------------------------9-9--9-9---9-9--------
D------------------------------------------------------------------
A------------------------------------------------------------------
E------------------------------------------------------------------

E------------------10--10-13-12-12-12-10-10-10------------12---10--
B-12-10-12-13-12-13--13-----------------------13-13-13-------------
D------------------------------------------------------9-9--9-9----
G------------------------------------------------------------------
A------------------------------------------------------------------
E------------------------------------------------------------------
                     y ahora el ultimo solo aqui tienes que rasgear
muy r pido:
                              3 VECES                      3  VECES
E----------------------|-------------------------|------------------------|
B-----13---12-10/9/10~-|-12-12-12-12-10-10-10-10-|13-13-13-13-12-12-12-12-|
G-9-9---9-9------------|-------------------------|------------------------|
D----------------------|-------------------------|------------------------|
A----------------------|-------------------------|------------------------|
E----------------------|-------------------------|------------------------|
      3  VECES                           LA ULTIMA PARTE VARIAS VECES
E------------------------|--------------------------------------------------
B-15-15-15-15-13-13-13-13|-20-20-20-20--17-17-17-20-18-17-20-18-17-20-18-17-
G------------------------|--------------------------------------------------
D------------------------|--------------------------------------------------
A------------------------|--------------------------------------------------
E------------------------|--------------------------------------------------
       3  VECES                  3  VECES
E------------------------|------------------------|-------------------------
B-12-12-12-12-10-10-10-10|-13-13-13-13-12-12-12-12|-15-15-15-15-13-13-13-13-
G------------------------|------------------------|-------------------------
D------------------------|------------------------|-------------------------
A------------------------|------------------------|-------------------------
E------------------------|------------------------|-------------------------

E--------------------------------------------------------|---------------
B-0-20-17-0-18-15-0-17-13-0-15-12-0-13-10-0-12-8-0-10-7-4|---------------
G--------------------------------------------------------|---------------
D--------------------------------------------------------|-7~-7-9/10-----
A--------------------------------------------------------|---------------
E--------------------------------------------------------|---------------
         ESTA ULTIMA PARTE SE REPITE HASTA QUE SE DESVANESCA EL SONIDO.
E-------------------------------------------------------------------------
B----------------------------------------8-6-5-------9/13-12-10-13-12-10--
G-9-7-5-4-----7/9-7-5-5/7-5-------------------5/7-7-7-------------------12
D--------5~5-5--------------5-5-7~-7-9/10---------------------------------
A-------------------------------------------------------------------------
E-------------------------------------------------------------------------

Fuente original: LaCuerda
Colaborador original: DAVID A. GARCIA. [D197@HOTMAIL.COM]
Calificar esta versión:
Aviso: Este fichero es trabajo propio de su transcriptor y representa su interpretación personal de la canción. El material contenido en esta página es para exclusivo uso privado, por lo que se prohibe su reproducción o retransmisión, así como su uso para fines comerciales.
Más versiones de Avientame, Caifanes
Avientame
acordes
Avientame
tablatura
Avientame (ver 2)
tablatura
Avientame (ver 3)
tablatura
Avientame
bajo
Descubre más canciones de Caifanes