Avientame, Caifanes (tablatura)

Autor: Anónimo | 15426 visualizaciones

Intro
      Am5        Bm5         C5                  (bajo)
E-----------|-----------|-----------|-----------|--------------------|
B-----------|-----------|-----------|-----------|--------------------|
G--2--2--2--|-4--4--4---|-5--5--5---|-4--4--4---|-------------2--2--2|
D--2--2--2--|-4--4--4---|-5--5--5---|-4--4--4---|-------------2--2--2|
A--0--0--0--|-2--2--2---|-3--3--3---|-2--2--2---|-------------0--0--0|
E-----------|-----------|-----------|-----------|-3-s-5-3-0----------|

                                     Estrofa 1 y 2 (3 veces, la 4ta. Hasta el compás 3)
E-----------|-----------|-----------|-------------|--------------|----
B-----------|-----------|-----------|-------------|--------------|----
G-4--4--4---|-5--5--5---|-4--4--4---|--4-5-4-4-5-4|---4-5-4-4-5-4|---4
D-4--4--4---|-5--5--5---|-4--4--4---|-7-----7-----|5-7-----7-----|5-7-
A-2--2--2---|-3--3--3---|-2--2--2---|-------------|--------------|----
E-----------|-----------|-----------|-------------|--------------|----

                                 (Este cambio en la estrofa 2 compás 3) 
E--------------|------------------|----------------------------------|
B--------------|------------------|----------5-6-5-------------------|
G-5-4-7-5-4-5-4|-4-5-4-7-5-4-5-4-*|----4-5-4------7-5----------------|
D--------------|7----------------*|-5-7------------------------------|
A--------------|------------------|----------------------------------|
E--------------|------------------|----------------------------------|



                            Coro
 Para entrar al coro        el compás 1 sólo entra antes de cada
  Am5   Bm5   Cm5   Em5   remate de Batería el 2 Durante todo el coro)
E------|-----|-----|-----|---------------------|------------------|
B------|-----|-----|-----|---------------------|------------------|
G------|-----|-----|-----|------7-5-9-5-7-7-5-5|-7-5-9-5-7-7-5-9-5|
D------|-----|-----|-----|-------------------7-|------------------|
A------|-----|-----|-----|---------------------|------------------|
E------|-----|-----|-----|---------------------|------------------|


 SOLO 1
E-----------------------------------------12-----------------------
B--12~~12-13-13~~12-13-12-8-8~~12-13-15-12--15-13-12-13-13~~--12-13
G--12~~------14~~------12-9-9~~-----------------------------14-----
D------------------------------------------------------------------
A------------------------------------------------------------------
E------------------------------------------------------------------


E-----------------------12-----------------------------------------
B~--12-13-12-13-15-13-15--15-13-12-13-17~0-0-15-0-0-13-0-0-15s13-12
G-14----------------------------------17~0-0-16-0-0-14-0-0-16s14-12
D------------------------------------------------------------------
A------------------------------------------------------------------
E------------------------------------------------------------------
E-5-7-5-7-5-7---7-8-7-8-7-8---8-10-8-10-8-10----10-12-10-12-10
B-5-5-5-5-5-5---6-6-6-6-6-6---8-8--8-8--8-8-----12-12-12-12-12
G-5-5-5-5-5-5---5-5-5-5-5-5---9-9--9-9--9-9-----11-11-11-11-11
D-------------------------------------------------------------
A-------------------------------------------------------------
E-------------------------------------------------------------


E----12---10--------------------------------------13-12-12-12-
B--------------10-9-10-12-10-12-13-12-13-15-13-15-------------
G-9-9--9-9--9-9-----------------------------------------------
D-------------------------------------------------------------
A-------------------------------------------------------------
E-------------------------------------------------------------


E-10-10-10--8-8-8-7-7--10~0-0---8~~0-0---10-0-0---7~0-0---5~~|
B----------------------12~0-0---10~0-0---12-0-0---8~0-0---5~~|
G---------------------------------------------------------5~~|
D------------------------------------------------------------|
A------------------------------------------------------------|
E------------------------------------------------------------|

SOLO 2(16avos)(4 veces)       (4 veces)
E-----------------------|------------------------|
B-8-12-12-12-8-10-10-10-|-10-13-13-13-10-12-12-12|
G-----------------------|------------------------|
D-----------------------|------------------------|
A-----------------------|------------------------|
E-----------------------|------------------------|

     (4 veces)                        
E------------------------|--------------------------------------|
B-12-15-15-15-12-13-13-13|-0-20-0-0-0-18-0-0-0-20-0-0-0-18-0-0-0|
G------------------------|--------------------------------------|
D------------------------|--------------------------------------|
A------------------------|--------------------------------------|
E------------------------|--------------------------------------|

    (2 veces)          (4 veces)                  (4 veces)
E-------------------|-----------------------|-------------------------|
B-15-0-12-0-13-0-12-|-8-12-12-12-8-10-10-10-|-10-13-13-13-10-12-12-12-|
G-------------------|-----------------------|-------------------------|
D-------------------|-----------------------|-------------------------|
A-------------------|-----------------------|-------------------------|
E-------------------|-----------------------|-------------------------|

          (3 veces)           
E-------------------------|-------------------------|
B-12-15-15-15-12-13-13-13-|-12-15-15-15---12--13--12|
G-------------------------|-------------------------|
D-------------------------|-------------------------|
A-------------------------|-------------------------|
E-------------------------|-------------------------|


E---------------------------------------------------|--------
B---------------------------------------------------|--------
G-19-17-0-17--0-16--0-14--0-12--0-10--0-9---0-7-0-5-|-5-7-9--
D-----------19----17----15----14----12---10----9--7-|-7-9-10-
A---------------------------------------------------|--------
E|

Fuente original: LaCuerda
Colaborador original: Alejandro Lomas Cruz [alex_lomas20@yahoo.com.mx]
Calificar esta versión:
Aviso: Este fichero es trabajo propio de su transcriptor y representa su interpretación personal de la canción. El material contenido en esta página es para exclusivo uso privado, por lo que se prohibe su reproducción o retransmisión, así como su uso para fines comerciales.
Más versiones de Avientame, Caifanes
Avientame
acordes
Avientame
tablatura
Avientame (ver 2)
tablatura
Avientame (ver 3)
tablatura
Avientame
bajo
Descubre más canciones de Caifanes