Avientame, Caifanes (bajo)

Autor: Anónimo | 45845 visualizaciones

Intro
G|-----------------------------|
D|-----------------------------|
A|-----------------------------| x2
E|-5-5-----7-7-----8-8-----7-7-|

Verso
G|-----------------------------|
D|-----------------------------|
A|-------------3-------------3-| x3
E|-11----11------55----55------|

G|------------------------------------------------------|
D|------------------------------------------------------|
A|-------------3----------------------------------------|
E|-11----11------5-5-5-55--7-7-7-77--8-8-8-88--7-7-7-77-|

[Verso]

Coro
G|--------------------------------------------------------------------------------|
D|--------------------------------------------------------------------------------|
A|--------------------------------------------------------------------------------| x2
E|-5-5-5-55--1-1-1-11--3-3-3-33--3-3-3-33--5-5-5-55--8-8-8-88--3-3-3-33--3-3-3-33-|

PosCoro
G|----------------------------------------|
D|----------------------------------------|
A|----------------------------------------| x4
E|-5-5-5-55--3-3-3-33--1-1-1-11--1-1-1-11-|

[Verso]
[Coro] hasta acabar la cancion.

Fuente original: LaCuerda
Colaborador original: José Ramón Arévalo [jrarevalom@hotmail.com]
Calificar esta versión:
Aviso: Este fichero es trabajo propio de su transcriptor y representa su interpretación personal de la canción. El material contenido en esta página es para exclusivo uso privado, por lo que se prohibe su reproducción o retransmisión, así como su uso para fines comerciales.
Más versiones de Avientame, Caifanes
Avientame
acordes
Avientame
tablatura
Avientame (ver 2)
tablatura
Avientame (ver 3)
tablatura
Avientame
bajo
Descubre más canciones de Caifanes