Afuera, Caifanes (tablatura) (ver 3)

Autor: Anónimo | 26600 visualizaciones

Intro
(Gtr 1)
 
     Bm
                       h                       h                       h
e |-----------------------|-----------------------|-----------------------|----|
b |-----------------------|-----------------------|-----------------------|----|
g |-----------------------|-----------------------|-----------------------|----|
d |--9--7-------9-7---7/9-|--9--7-------9-7---7/9-|--9--7-------9-7---7/9-|-9--|
a |--------9--------9-----|--------9--------9-----|--------9--------9-----|----|
e |-----------------------|-----------------------|-----------------------|----|
 
                       h                       h                       h
e |-----------------------|-----------------------|-----------------------|----||
b |-----------------------|-----------------------|-----------------------|----||
g |-----------------------|-----------------------|-----------------------|----||
d |--9--7-------9-7---7/9-|--9--7-------9-7---7/9-|--9--7-------9-7---7/9-|-9--||
a |--------9--------9-----|--------9--------9-----|--------9--------9-----|----||
e |-----------------------|-----------------------|-----------------------|----||
 
(Gtr 2)
(Play 4 times)
     Bm
 
e |-----------------|
b |-----------3-----|
g |-----------4-----|
d |-----------------|
a |--2---2-2--------|
e |-----------------|
 
 
e |----------------|----------------|----------------|----------------|
b |----------------|----------------|----------------|----------------|
g |----------------|----------------|----------------|----------------|
d |----------------|----------------|----------------|----------------|
a |--2---2-2--2----|--2---2-2--2----|--2---2-2--2----|--2---2-2--2----|
e |----------------|----------------|----------------|----------------|
        Muchos a___ños uno cree, que el cae___r es levantarse, y de re-
 
(play 2 times)
     Em
 
e |----------------|----------------|----------------|----------------||
b |----------------|----------------|----------------|----------------||
g |----------------|----------------|----------------|----------------||
d |---------2-0----|---------2-0----|---------2-0----|---------2-0----||
a |-------2--------|-------2--------|-------2--------|-------2--------||
e |--0-------------|--0-------------|--0-------------|--0-------------||
    -pente                                              ya no te pa_ras
 
e |----------------|----------------|----------------|----------------|
b |----------------|----------------|----------------|----------------|
g |----------------|----------------|----------------|----------------|
d |----------------|----------------|----------------|----------------|
a |--2---2-2--2----|--2---2-2--2----|--2---2-2--2----|--2---2-2--2----|
e |----------------|----------------|----------------|----------------|
        que el amo__r es te_mporal, que todo_ te puede pa_sar, y de re-
 
(play 2 times)
     Em
 
e |----------------|----------------|----------------|----------------||
b |----------------|----------------|----------------|----------------||
g |----------------|----------------|----------------|----------------||
d |---------2-0----|---------2-0----|---------2-0----|---------2-0----||
a |-------2--------|-------2--------|-------2--------|-------2--------||
e |--0-------------|--0-------------|--0-------------|--0-------------||
    -pente                                              estas muy so_lo
 
 
 
(gtr 1)
 
     Bm                                                       F#
 
e |-------2----------|-------2----------|-------2----------|-------2----------|
b |--0--0---3--3-2--3|--0--0---3--3-2--3|--0--0---3--3-2--3|--2--2---3--3-2--3|
g |------------------|------------------|------------------|------------------|
d |------------------|------------------|------------------|------------------|
a |------------------|------------------|------------------|------------------|
e |------------------|------------------|------------------|------------------|
     a_fue__ra,         afuera tu no ex_istes,    solo adentro
 
     Bm                                                       F#
 
e |-------2----------|-------2----------|-------2----------|-------2----------|
b |--0--0---3--3-2--3|--0--0---3--3-2--3|--0--0---3--3-2--3|--2--2---3--3-2--3|
g |------------------|------------------|------------------|------------------|
d |------------------|------------------|------------------|------------------|
a |------------------|------------------|------------------|------------------|
e |------------------|------------------|------------------|------------------|
     a_fue__ra,         afuera no te cui__do,     solo adentro
 
     Bm                                                       F#
 
e |-------2----------|-------2----------|-------2----------|-------2----------|
b |--0--0---3--3-2--3|--0--0---3--3-2--3|--0--0---3--3-2--3|--2--2---3--3-2--3|
g |------------------|------------------|------------------|------------------|
d |------------------|------------------|------------------|------------------|
a |------------------|------------------|------------------|------------------|
e |------------------|------------------|------------------|------------------|
     a_fue__ra,         te desbarata el viento sin du_darlo___
 
     Bm                                                       F#
 
e |-------2----------|-------2----------|-------2----------|-------2----------|
b |--0--0---3--3-2--3|--0--0---3--3-2--3|--0--0---3--3-2--3|--2--2---3--3-2--3|
g |------------------|------------------|------------------|------------------|
d |------------------|------------------|------------------|------------------|
a |------------------|------------------|------------------|------------------|
e |------------------|------------------|------------------|------------------|
     a_fue__ra,         nadie es           na_da, solo adentro
 
(Gtr 2)
                      Bm
                                                           *Fill 1
e |----------------|----------------|----------------|----------------|----------------|
b |----------------|----------------|----------------|----------------|----------------|
g |----------------|----------------|----------------|----------------|----------------|
d |----------------|----------------|----------------|----------------|----------------|
a |----------------|--2---2-2--2----|--2---2-2--2----|--2---2-2--2----|--2---2-2--2----|
e |----------------|----------------|----------------|----------------|----------------|...
  Ahhh__ Ahh__   Ahhhh____
 
(Gtr 1)
     Bm
  Fill1                       h    (end)
e |--------------------------------|
b |--------------------------------|
g |--11-9-7-9--7--9-7--------------|
d |--------------------9--7--7/9---|
a |--------------------------------|
e |--------------------------------|
 
(Gtr 2)
     Bm
 
e |----------------|----------------|----------------|----------------|
b |----------------|----------------|----------------|----------------|
g |----------------|----------------|----------------|----------------|
d |----------------|----------------|----------------|----------------|
a |--2---2-2--2----|--2---2-2--2----|--2---2-2--2----|--2---2-2--2----|
e |----------------|----------------|----------------|----------------|
        siguen los a__ños y uno esta, creyendo que__ puede rezar y de re-
 
(play 2 times)
     Em
 
e |----------------|----------------|----------------|----------------||
b |----------------|----------------|----------------|----------------||
g |----------------|----------------|----------------|----------------||
d |---------2-0----|---------2-0----|---------2-0----|---------2-0----||
a |-------2--------|-------2--------|-------2--------|-------2--------||
e |--0-------------|--0-------------|--0-------------|--0-------------||
    -pente                                              ya te perdi_ste
 
e |----------------|----------------|----------------|----------------|
b |----------------|----------------|----------------|----------------|
g |----------------|----------------|----------------|----------------|
d |----------------|----------------|----------------|----------------|
a |--2---2-2--2----|--2---2-2--2----|--2---2-2--2----|--2---2-2--2----|
e |----------------|----------------|----------------|----------------|
        u__no cree que pue__de creer, y tene___r todo el po_der, y de re-
 
(play 2 times)
     Em
 
e |----------------|----------------|----------------|----------------||
b |----------------|----------------|----------------|----------------||
g |----------------|----------------|----------------|----------------||
d |---------2-0----|---------2-0----|---------2-0----|---------2-0----||
a |-------2--------|-------2--------|-------2--------|-------2--------||
e |--0-------------|--0-------------|--0-------------|--0-------------||
    -pente                                              no tie_nes nada
 
(Gtr 1)
 
     Bm                                                       F#
 
e |-------2----------|-------2----------|-------2----------|-------2----------|
b |--0--0---3--3-2--3|--0--0---3--3-2--3|--0--0---3--3-2--3|--2--2---3--3-2--3|
g |------------------|------------------|------------------|------------------|
d |------------------|------------------|------------------|------------------|
a |------------------|------------------|------------------|------------------|
e |------------------|------------------|------------------|------------------|
     a_fue__ra,         afuera tu no ex_istes,    solo adentro
 
     Bm                                                       F#
 
e |-------2----------|-------2----------|-------2----------|-------2----------|
b |--0--0---3--3-2--3|--0--0---3--3-2--3|--0--0---3--3-2--3|--2--2---3--3-2--3|
g |------------------|------------------|------------------|------------------|
d |------------------|------------------|------------------|------------------|
a |------------------|------------------|------------------|------------------|
e |------------------|------------------|------------------|------------------|
     a_fue__ra,         afuera no te cui__do,     solo adentro
 
     Bm                                                       F#
 
e |-------2----------|-------2----------|-------2----------|-------2----------|
b |--0--0---3--3-2--3|--0--0---3--3-2--3|--0--0---3--3-2--3|--2--2---3--3-2--3|
g |------------------|------------------|------------------|------------------|
d |------------------|------------------|------------------|------------------|
a |------------------|------------------|------------------|------------------|
e |------------------|------------------|------------------|------------------|
     a_fue__ra,         te desbarata el viento sin du_darlo___
 
     Bm                                                       F#
 
e |-------2----------|-------2----------|-------2----------|-------2----------|
b |--0--0---3--3-2--3|--0--0---3--3-2--3|--0--0---3--3-2--3|--2--2---3--3-2--3|
g |------------------|------------------|------------------|------------------|
d |------------------|------------------|------------------|------------------|
a |------------------|------------------|------------------|------------------|
e |------------------|------------------|------------------|------------------|
     a_fue__ra,         nadie es           na_da, solo adentro
 
 
 
 
 
 
(Gtr 2)
                      Bm
                            *solo
e |----------------|----------------|----------------|----------------|----------------|
b |----------------|----------------|----------------|----------------|----------------|
g |----------------|----------------|----------------|----------------|----------------|
d |----------------|----------------|----------------|----------------|----------------|
a |----------------|--2---2-2--2----|--2---2-2--2----|--2---2-2--2----|--2---2-2--2----|
e |----------------|----------------|----------------|----------------|----------------|
  Ahhh__ Ahh__   Ahhhh____
 
(Gtr 1)
*solo
(play 2 times)
 
     Bm
                                                           s
e |--10--7--9-------------||     e |--10--7--9----------------------||
b |-----------10--7-------||     b |-----------10--7--10-10/12--12--||
g |------------------9-7--||     g |--------------------------------||
d |-----------------------||     d |--------------------------------||
a |-----------------------||     a |--------------------------------||
e |-----------------------||...  e |--------------------------------||
 
(play 2 times)
 
     Bm                                               s
 
e |--10--7--9-------------||     e |--10--7--9-------------|
b |-----------10--7-------||     b |-----------10--7-------|
g |------------------9-7--||     g |-----------------97-7-|
d |-----------------------||     d |-----------------------|
a |-----------------------||     a |-----------------------|
e |-----------------------||...  e |-----------------------|
 
 
 
(play 2 times)
 
 
                                                            h
e |-----------------------||     e |-----------------------------|
b |-----------------------||     b |-----------------------------|
g |-7---7---7--7-7---7---7||     g |-7---7---7--7-6--------------|
d |-----------------------||     d |-----------------9--7--7/9---|
a |-----------------------||     a |-----------------------------|
e |-----------------------||     e |-----------------------------|
 
(play 2 times)
 
e |-----------------------||     e |----------------------------------------|
b |-----------------------||     b |----------------------------------------|
g |-7---7---7--7-7---7---7||     g |-7--6--7--9/-11--11--11--11-9--7--6-----|
d |-----------------------||     d |-------------------------------------9--|
a |-----------------------||     a |----------------------------------------|
e |-----------------------||     e |----------------------------------------|
 
           *Fill 2    
e |---------------------------------------------------------------------------|
b |---------------------------------------------------------------------------|
g |--7--9/-11---11---11--11-11---11---11-11---11---11---11---11--9-11-9-11--11|
d |---------------------------------------------------------------------------|
a |---------------------------------------------------------------------------|
e |---------------------------------------------------------------------------|
 
 
e |---------------------------------------------------------------------------|
b |---------------------------------------------------------------------------|
g |---11--11-11---11---11-11---11---11---11---11--9-11-9-11--11---11--11-11---|
d |---------------------------------------------------------------------------|
a |---------------------------------------------------------------------------|
e |---------------------------------------------------------------------------|
 
 
 
 
                                                     h
e |-----------------------------------------------------------|
b |-----------------------------------------------------------|
g |11---11-11---11---11---11---11-11--14--12--11--11/12--11---|
d |-----------------------------------------------------------|
a |-----------------------------------------------------------|
e |-----------------------------------------------------------|
 
 
e |--------------------------------------------------------------------|
b |--------------------------------12---10-----------------------------|
g |--7--9/-11---11/-14--12-11---11----------11---11---12/14---12--11---|
d |--------------------------------------------------------------------|
a |--------------------------------------------------------------------|
e |--------------------------------------------------------------------|
 
                                              h       s
e |------12-10---------------------------------------------------------------|
b |---10-------12--10--------------------------------------------------------|
g |-11------------------11--9--7--9-7---------------------------------6------|
d |------------------------------------9--7--7/9----------9--9--7--9----9----|
a |--------------------------------------------------/9----------------------|
e |--------------------------------------------------------------------------|
 
                             h                          *Fill 3
e |--10-7-7--10-7-7--5-5--7-7/8-7---5-2--5-2--0--0--2-0----|
b |--7--7-7--7--7-7--5-5--7-7/8-7---7-3--7-3--2--2--3-2-0--|
g |----------------------------------------------------------|
d |----------------------------------------------------------|
a |----------------------------------------------------------|
e |----------------------------------------------------------|
 
                                *Fill4
e |--10-7-7--10-7-7--5-5--7-7/8-7---5-2--5-2--0--0--2-0----||
b |--7--7-7--7--7-7--5-5--7-7/8-7---7-3--7-3--2--2--3-2-0--||
g |----------------------------------------------------------||
d |----------------------------------------------------------||
a |----------------------------------------------------------||
e |----------------------------------------------------------||
 
(Gtr 2)
 
Fill 2
e |------------------------------------------|
b |-3----3----3----3----3----3-----7----7----|
g |------------------------------------------|
d |------------------------------------------|
a |----2---2-----2---2-----2---2------5---5--|
e |------------------------------------------|
 
e |------------------------------------------|
b |-3----3----3----3----3----3-----7----7----|
g |------------------------------------------|
d |------------------------------------------|
a |----2---2-----2---2-----2---2------5---5--|
e |------------------------------------------|
 
e |------------------------------------------|
b |-3----3----3----3----3----3-----2----2----|
g |------------------------------------------|
d |------------------------------------------|
a |----2---2-----2---2-----2---2------0---0--|
e |------------------------------------------|
 
e |-------------------------------|
b |-3----3----3----3----3----3~~--|
g |-------------------------------|
d |-------------------------------|
a |----2---2-----2---2-----2------|
e |-------------------------------|
 
 
 
 
 
e |--------------------------------------------------|
b |---3--5--7----7----7----7----7----7-----12---12---|
g |--------------------------------------------------|
d |--------------------------------------------------|
a |------------5---5-----5---5-----5---5------10--10-|
e |--------------------------------------------------|
 
e |------------------------------------------|
b |-7----7----7----7----7----7-----12---12---|
g |------------------------------------------|
d |------------------------------------------|
a |----5---5-----5---5-----5---5------10--10-|
e |------------------------------------------|
 
e |-----------------------------------------------------------------|
b |-7----7----7----7----7----7-----5----5----4----4----3----3----3--|
g |-----------------------------------------------------------------|
d |-----------------------------------------------------------------|
a |----5---5-----5---5-----5---5------4---4-----3---3-----2---2----2|
e |-----------------------------------------------------------------|
 
e |---------------------------------------||
b |-3----3----3----3----3----2----2----3--||
g |---------------------------------------||
d |---------------------------------------||
a |----2---2-----2---2-----2---0----0-----||
e |---------------------------------------||
 
(Gtr 2)
Fiil3                        Fill 4
           h                              h
e |------------------||      e |------------------||
b |------------------||      b |------------------||
g |-9--7--7/9--7-----||      g |------------------||
d |--------------9~~-||      d |-9--7----7/9--9~~-||
a |------------------||      a |-------9----------||
e |------------------||      e |------------------||
 
(Gtr 1)
     Bm                                                       F#
 
e |-------2----------|-------2----------|-------2----------|-------2----------|
b |--0--0---3--3-2--3|--0--0---3--3-2--3|--0--0---3--3-2--3|--2--2---3--3-2--3|
g |------------------|------------------|------------------|------------------|
d |------------------|------------------|------------------|------------------|
a |------------------|------------------|------------------|------------------|
e |------------------|------------------|------------------|------------------|
     a_fue__ra,         afuera tu no ex_istes,    solo adentro
 
     Bm                                                       F#
 
e |-------2----------|-------2----------|-------2----------|-------2----------|
b |--0--0---3--3-2--3|--0--0---3--3-2--3|--0--0---3--3-2--3|--2--2---3--3-2--3|
g |------------------|------------------|------------------|------------------|
d |------------------|------------------|------------------|------------------|
a |------------------|------------------|------------------|------------------|
e |------------------|------------------|------------------|------------------|
     a_fue__ra,         afuera no te cui__do,     solo adentro
 
     Bm                                                       F#
 
e |-------2----------|-------2----------|-------2----------|-------2----------|
b |--0--0---3--3-2--3|--0--0---3--3-2--3|--0--0---3--3-2--3|--2--2---3--3-2--3|
g |------------------|------------------|------------------|------------------|
d |------------------|------------------|------------------|------------------|
a |------------------|------------------|------------------|------------------|
e |------------------|------------------|------------------|------------------|
     a_fue__ra,         te desbarata el viento sin du_darlo___
 
 
 
 
 
 
     Bm                                                       F#
 
e |-------2----------|-------2----------|-------2----------|-------2----------|
b |--0--0---3--3-2--3|--0--0---3--3-2--3|--0--0---3--3-2--3|--2--2---3--3-2--3|
g |------------------|------------------|------------------|------------------|
d |------------------|------------------|------------------|------------------|
a |------------------|------------------|------------------|------------------|
e |------------------|------------------|------------------|------------------|
     a_fue__ra,         nadie es           na_da, solo adentro
 
                       Bm
 
e |------------------|------3-2-------3-2-------3-2-------3-2---|
b |------------------|-0--0------0--0------0--0------0--0-----0-|
g |------------------|------------------------------------------|
d |------------------|------------------------------------------|
a |------------------|------------------------------------------|
e |------------------|------------------------------------------|
ahhh ahhhh ahhhhhh
 
 
_____________________________________________________________________________________
 
Written by Mauricio Montiel
mauro83@latinmail.com
Cali
 
CREDITOS
Leonardo Calva Medina
1g276942@hp9k.lag.itesm.mx
Mexico
 
Daniel Diaz
ddiaz@nether.net
daniel.diaz@f2.n971.z4.fidonet.org
Mexico

Fuente original: LaCuerda
Colaborador original: ]
Calificar esta versión:
Aviso: Este fichero es trabajo propio de su transcriptor y representa su interpretación personal de la canción. El material contenido en esta página es para exclusivo uso privado, por lo que se prohibe su reproducción o retransmisión, así como su uso para fines comerciales.
Más versiones de Afuera, Caifanes
Afuera
acordes
Afuera
tablatura
Afuera (ver 2)
tablatura
Afuera (ver 3)
tablatura
Afuera (ver 4)
tablatura
Afuera
bajo
Afuera (ver 2)
bajo
Afuera
teclado
Descubre más canciones de Caifanes