Afuera, Caifanes (bajo) (ver 2)

Autor: Anónimo | 14231 visualizaciones

Intro y Verso

G|-----------------------------------
D|------------4-4--------------------
A|---2----2--------2----2------------
E|--------------------------2-------- x6



Pre-Coro

G|----------------------------------
D|------2---2--0-------0---2--------
A|--0--------------2----------------
E|---------------------------------- x2

Verso  x2

Pre-Coro x2

Coro

G|--------------------------------------
D|--------------------------------------
A|--2222222-0/1/2222222 0/1/2222222222--
E|--------------------------------------

G|-----------------------------
D|-----------------------------
A|-----------------------------
E|--333333333-555555555--------        x4

G|-----------------------------
D|-----------------------------
A|--77777777 99999999----------
E|-----------------------------   Esto se toca despues de la
                                  cuarta (4a) vez que toques el coro
                                  y sigue el verso. 
                                      
Verso x2

Pre-Coro x2

Coro (igual que arriba)


Solo

G|-------------------------------------------------------
D|-------------------------------------------------------
A|--2--2---2---2---5---5---5---2---2--2--2--2--5--5------
E|-------------------------------------------------------
  Esto se toca 2 veces y luego nada mas hasta que entre el coro

Coro 
         Y el fin.

Esuchen la cancion y lo agarran......

Fuente original: LaCuerda
Colaborador original: Julian Solis [jaguar721_16@yahoo.com]
Calificar esta versión:
Aviso: Este fichero es trabajo propio de su transcriptor y representa su interpretación personal de la canción. El material contenido en esta página es para exclusivo uso privado, por lo que se prohibe su reproducción o retransmisión, así como su uso para fines comerciales.
Más versiones de Afuera, Caifanes
Afuera
acordes
Afuera
tablatura
Afuera (ver 2)
tablatura
Afuera (ver 3)
tablatura
Afuera (ver 4)
tablatura
Afuera
bajo
Afuera (ver 2)
bajo
Afuera
teclado
Descubre más canciones de Caifanes