Afuera, Caifanes (bajo)

Autor: Anónimo | 33873 visualizaciones



Intro y Verso.-
|-------------------------------------|
|------444--------------444-----------|
|--2-2-------2-2---2-2------2-2--2-2--|   No estoy seguro cuantas 
|-----------------2-------------2-----|         veces se repite.

Luego cambia a esto.-( y derepenete....ya no te paras)
|------------------------|
|------2p0------2p0-2----|
|------------------------|
|--0-0------0-0----------|

*Todo se repite dos veces*

Coro.- (afuera....afuera tu no existes solo adentro....)
|--------------------------------------|
|--------------2-2-2-2-2---------------|
|-2-2-2-2-2-2--------------------------|
|------------------------2-2-2-2-2-2-2-|

(ahhhh....)
|---------------------------------------|
|---------------------------------------|    
|---------------------------------------|    
|--3-3-3-3-3--5-5-5-5-5--7-7-7-7-7------|

*Verso*
*Coro*

Aqui empieza el requinto mientras tu tocas esto.-
|-----------------------|
|-----------------------|
|-----------------------|
|--7-7--7-7--7-7--7-7---|

Despues se toca esto junto con la tarola de la bateria...-
|------------------------|
|------------------------|
|------------------------|
|--7----7----7----7~-----|

(Se queda la guitarra sola tocando el requinto grande...)

Durante el requinto, el bajo entre haci (escuchen la rola para saber cuando)
|-------------------------------|    |----------------------------|  
|-------------------------------|    |----------------------------|  
|-------------------------------| 2x |----------------------------|  
|-7-7--7-7-7---7-7-7--7-7/9-9-9-|    |-7-7-7-7-7--7/5-5-5---------|  

|----------------------------|  
|----------------------------|  
|----------------------------|  
|-7-7-7-7-7-7-7-7-7-7--------|   

|------------------------------|  
|------------------------------|    
|------------------------------|
|-7-7-7-7-7-7--7/14-14-14-14---|

|------------------------------|  
|------------------------------|    
|------------------------------|
|-9-9-9-9-9-9--9/14-14-14-14---|

|-----------------------|---------------------|
|-----------------------|---------------------|  
|-----------------------|---------------------|
|-9-9-9-9-9-9/7-7-7-7---|-7-7-7-7-7-7-7/5-5-5-|  

(El bajo se cayo por el resto del requinto)

Aqui entra otra vez el bajo con el coro y asi se queda toda la rola.-

Coro.- (afuera....afuera tu no existes solo adentro....)
|--------------------------------------|
|--------------2-2-2-2-2---------------|
|-2-2-2-2-2-2--------------------------|
|------------------------2-2-2-2-2-2-2-|


P.S. nada esta a tiempo asi que tendran que escuchar el cd  =)

Dudas o Comentarios a:

Fuente original: LaCuerda
Colaborador original: Andy Valles [[email protected]]





Calificar esta versión:
Aviso: Este fichero es trabajo propio de su transcriptor y representa su interpretación personal de la canción. El material contenido en esta página es para exclusivo uso privado, por lo que se prohibe su reproducción o retransmisión, así como su uso para fines comerciales.
Más versiones de Afuera, Caifanes
Afuera
acordes
Afuera
tablatura
Afuera (ver 2)
tablatura
Afuera (ver 3)
tablatura
Afuera (ver 4)
tablatura
Afuera
bajo
Afuera (ver 2)
bajo
Afuera
teclado
Descubre más canciones de Caifanes