Hasta Siempre, Boikot (tablatura) (ver 2)

Autor: Anónimo | 38080 visualizaciones



pedazo de trompeta:
e 10-11-13-11-10-8-10-11-10-8-10-11-10-8-10
B -----------------------------------------


e 10-15----15----15-13-12-12-13---15-13-11-11-8-10-11-10
B ------25----25----------------------------------------


en el punteo del principio: G F D# D
e -----------------------------------------------
B 12-10----10-12-10-12-----10---------10----10---
G ------12-------------12----12-10-12----12----10

e--------------------------
B -----------------10------
G 12-10-9-10-12-10----10-12



G G           D
    aprendimos a kererte
G G               D
    desde la historica altura
G                     F
donde el sol de tu bravura
   D#              D
le puso cerco a la muerte

G G                 G G D D D
  y aki se keda la clara
G G                 G G D D...
  la intrañable trasparencia

   G            F           D# D#        D
de tu kerida presencia comandante CHE GUEVARA!!! (bis)


el acompañamiento del solo largo es con las notas del principio,
es decir G F D# D


asi es toda la cancion...

ke le disfute...





Calificar esta versión:
Aviso: Este fichero es trabajo propio de su transcriptor y representa su interpretación personal de la canción. El material contenido en esta página es para exclusivo uso privado, por lo que se prohibe su reproducción o retransmisión, así como su uso para fines comerciales.
Más versiones de Hasta Siempre, Boikot
Hasta Siempre
acordes
Hasta Siempre
tablatura
Hasta Siempre (ver 2)
tablatura
Hasta Siempre
bajo
Descubre más canciones de Boikot