Hasta Siempre, Boikot (tablatura)

Autor: Anónimo | 19837 visualizaciones



 Boikot - Hasta Siempre


   Intro de trompeta:
   -----------------
e|---9--10-12-10-9----9p10h9----9p10h11---9p10h9---9----9-14--14---12p14h12--10-12---|
B|-----------------12-------12---------12-------12----------14--14-------------------|
G|-----------------------------------------------------------------------------------|
D|-----------------------------------------------------------------------------------|
A|-----------------------------------------------------------------------------------|
E|-----------------------------------------------------------------------------------|



 D#     D#      D
 Comandante  Che Guevara



  Punteillo del principio:
  -----------------------
    G                             A#                       D#             D
e|-----------------------------------------------------------------------------||
B|-11-10----10-11-10p11h10--------10-8---8-10-8p10h8-------8-6---6-8-8-10-8-6--||
G|------12-----------------12---------10-------------10--------8---------------||
D|-----------------------------------------------------------------------------||
A|-----------------------------------------------------------------------------||
E|-----------------------------------------------------------------------------||


Estrofa 1:
---------
 G                D
    Aprendimos a kererte
 G                D
    desde la historika aldura
    G  G  G  G    A# A# A# A#
    Donde el sol de tu bravura
    D# D# D# D#   D  D  D  D
    le puso cerco a la muerte


Estribillo:
----------
 G                D  D  D  D
    Aki se keda la clara,
 G                D  D  D  D
    la entrañable transparencia

    G     G G G   A#   A# A# A# |
    De tu kerida presencia      |
    D#     D#     D             |  x 2
    Comandante Che Guevara      |




  Tu mano gloriosa y fuerte  |
  Sobre la historia dispara  |  Igual ke la
  Cuando todo ser ke kiera   |   Estrofa 1
  se despierta para verte    |




 Punteo:
 ------

e|------------------------------8--10-10p11-10-8---10-10p11-10-8---13-11-10-8-10-11-----
B|----8---8-----------------------------------------------------------------------------
G|--7---7---8-7----7-8-7----------------------------------------------------------------
D|--------------10-------10-------------------------------------------------------------
A|--------------------------------------------------------------------------------------
E|--------------------------------------------------------------------------------------


                                                                 PM..................
e|--------------------------------------------------------------------------------------||
B|--------------------------------------------------------------------------------------||
G|--8-7----8-7-----------8-7----8-7-------7-----8-7--5-7-8--5-7-8-(7-5-7-8-7-5-7-8...)--||
D|------10-----10--8-7-------10-----10--8------------------------- Esto lo hace cada ---||
A|---------------------------------------------------------------- vez mas rápido. No---||
E|---------------------------------------------------------------- he contao las veces--||
                                                                   pero hacedlo mas o 
                                                                   menos las que creais



   G         C        D
   Tu amor revolucionario
   G         C        D
   te conduce a tu otra empresa
   G  G  G  G   A# A# A# A#
   Donde espera la firmeza
   D# D# D# D#  D  D  D  D
   de tu brazo libertario

   G         C        D
   Seguiremos adelante
   G         C        D
   como junto a ti seguimos
   G  G  G  G   A# A# A# A#
   y nosotros te decimos:
   D#            D
   Hasta siempre Comandante



 Final:
 -----
                                     D      D#     D      D#    D D# D D# D D# D D#   D
   Comandante...           ...Che Guevara


   Bueno, eso es toda la cancion, la letra no se si es asi o si me he ekivocao
   porque no tengo el libro y algunas frases no las entiendo mu bien, asi que he
   puesto lo ke creo ke es.

      Nota: todos los acordes son kintas


            [email protected]





Calificar esta versión:
Aviso: Este fichero es trabajo propio de su transcriptor y representa su interpretación personal de la canción. El material contenido en esta página es para exclusivo uso privado, por lo que se prohibe su reproducción o retransmisión, así como su uso para fines comerciales.
Más versiones de Hasta Siempre, Boikot
Hasta Siempre
acordes
Hasta Siempre
tablatura
Hasta Siempre (ver 2)
tablatura
Hasta Siempre
bajo
Descubre más canciones de Boikot