Hasta Siempre, Boikot (bajo)

Autor: Anónimo | 24833 visualizaciones



Es la primera tab k ago, espero k este bien, ay ba:


(TROMPETA)

Comandante, Che Guevara
----------------------------
----------------------------
---6--6------5--------------
----------------------------

Mientras esta el punteillo del principio


-----------------------------------------------
--555555555-777777777--------------------------
----------------------66666666-55--------------
-----------------------------------------------

Estrofa 1:
---------


 Aprendimos a kererte
-----------------------------------------------
--55555555-------------------------------------
-------------55555555--------------------------
-----------------------------------------------

desde la historika aldura
-----------------------------------------------
--55555555-------------------------------------
-------------55555555--------------------------
-----------------------------------------------

 Donde el sol de tu bravura
-----------------------------------------------
-5--5--5--5----3--3--3--3----------------------
-----------------------------------------------
-----------------------------------------------

le puso cerco a la muerte
-----------------------------------------------
-----------------------------------------------
--66666666---55555555--------------------------
-----------------------------------------------


Estribillo:
----------

 Aki se keda la clara,
-----------------------------------------------
--5-5-5-5-5-5-5-5------------------------------
----------------------5-5-5-5-5----------------
-----------------------------------------------


la entrañable transparencia

-----------------------------------------------
--5-5-5-5-5-5-5-5------------------------------
----------------------5-5-5-5-5----------------
-----------------------------------------------

De tu kerida presencia
-----------3333333------------------------------------
--55555555---------------------------------------------
-----------------------------------------------
-----------------------------------------------

Comandante Che Guevara
----------------------------
----------------------------
---6--6------5--------------
----------------------------



Tu mano gloriosa y fuerte
-----------------------------------------------
--55555555-------------------------------------
-------------55555555--------------------------
-----------------------------------------------

Sobre la historia dispara
-----------------------------------------------
--55555555-------------------------------------
-------------55555555--------------------------
-----------------------------------------------
Cuando todo ser ke kiera
-----------------------------------------------
-5--5--5--5----3--3--3--3----------------------
-----------------------------------------------
-----------------------------------------------
se despierta para verte
-----------------------------------------------
-----------------------------------------------
--66666666---55555555--------------------------
-----------------------------------------------

----------------Estribillo otra vez------------

Mientras esta el punteo

-----------------------------------------------
--555555555-777777777--------------------------
----------------------66666666-55--------------
-----------------------------------------------

Tu amor revolucionario
-----------------------------------------------
--55555555-------------------------------------
-------------55555555--------------------------
-----------------------------------------------




te conduce a tu otra empresa
-----------------------------------------------
--55555555-------------------------------------
-------------55555555--------------------------
-----------------------------------------------

Donde espera la firmeza
-----------------------------------------------
-5--5--5--5----3--3--3--3----------------------
-----------------------------------------------
-----------------------------------------------

de tu brazo libertario
-----------------------------------------------
-----------------------------------------------
--66666666---55555555--------------------------
-----------------------------------------------

Seguiremos adelante
-----------------------------------------------
--55555555-------------------------------------
-------------55555555--------------------------
-----------------------------------------------

como junto a ti seguimos
-----------------------------------------------
--55555555-------------------------------------
-------------55555555--------------------------
-----------------------------------------------

y nosotros te decimos:
-----------------------------------------------
-5--5--5--5----3--3--3--3----------------------
-----------------------------------------------
-----------------------------------------------

Hasta siempre Comandante

-----------------ESTRIBILLO---------------------

 Final:
 -----

   Comandante...

...Che Guevara
-------------------------------------------------
-------------------------------------------------
----------5555-6666-5555-6666-5-6-5-6-5-6-5-6-5--
-------------------------------------------------

Dudas, correcciones, birras, porros, todo tipo de
alcohol, tias, etc a [email protected]





Calificar esta versión:
Aviso: Este fichero es trabajo propio de su transcriptor y representa su interpretación personal de la canción. El material contenido en esta página es para exclusivo uso privado, por lo que se prohibe su reproducción o retransmisión, así como su uso para fines comerciales.
Más versiones de Hasta Siempre, Boikot
Hasta Siempre
acordes
Hasta Siempre
tablatura
Hasta Siempre (ver 2)
tablatura
Hasta Siempre
bajo
Descubre más canciones de Boikot