Desvelado, Bobby Pulido (tablatura)

Autor: Vipers | 25672 visualizaciones



Q ONDA ..AQUI LES DEJO ESTE INTRO, QUE LO DISFRUTEN..

ACOMPAÑADO CON LOS ACORDES Bm,E7,A,F#7
1-----12-10-9-9-10-9--
2---------------------
3----------------------
4--------------------
5------------------------
6---------------------



1--------------14-14-14----12-12--10-9-10-9-10
2-----------14--------------------------------
3----------------------------------------------
4----------------------------------------------
5---------------------------------------------
6--------------------------------------------





1-----------------------------------
2--9-10-12-12-10-------------------
3-----------------------------------
4-----------------------------------
5-----------------------------------
6-----------------------------------





Calificar esta versión:
Aviso: Este fichero es trabajo propio de su transcriptor y representa su interpretación personal de la canción. El material contenido en esta página es para exclusivo uso privado, por lo que se prohibe su reproducción o retransmisión, así como su uso para fines comerciales.
Más versiones de Desvelado, Bobby Pulido
Desvelado
acordes
Desvelado (ver 2)
acordes
Desvelado
tablatura
Desvelado
bajo
Desvelado
bateria
Descubre más canciones de Bobby Pulido