Desvelado, Bobby Pulido (bajo)

Autor: Anónimo | 36362 visualizaciones



INTRO

      Bm                        E
G----------------------------------------------------------
D----------------------------------6-9---------------------
A---------9---------9-----------7-------7--6---------------
E---7--10-----7--10----------------------------------------

      C#m                        F#
G------------------------------------------------
D--------6--------6------------------------------
A---4--7-----4--7------------------1-4-----1-4---
E-------------------------------2-------2--------

      Bm                         E
G-----------------------------------------------------
D----------------------------------6-9-----6-9--------
A---------9---------9-----------7-------7-------------
E---7--10-----7--10-----------------------------------

     A                        F#
G------------------------------------------------
D------------------------------------------------
A------4-7-------4-7-----------------------------
E---5---------5---------------2--2--2------------





VERSO X 2

   Bm                          E
G-------------------------------------------------
D----------------------------------6-9-----6-9----
A---------9---------9-----------7-------7---------
E---7--10-----7--10-------------------------------


   A                         F#
G------------------------------------------------
D------------------------------------------------
A------4-7-----4-7--------------1-4--------1-4---
E---5-------5----------------2----------2--------








PUENTE
La escucho cada dia en la radio
    Bm                          E
G------------------------------------------------
D----------------------------------6-9-----------
A---------9---------9-----------7-------7--8--9--
E---7--10-----7--10------------------------------

    F#                       F#
G------------------------------------------------
D------------------------------------------------
A---7--9-9---------------------------------------
E----------------------------0-2------0---2-2----



CORO
Voy desvelado
     D                     E
G----------------------------------------------------
D-----4-7-----4-7-------------6-9--------------------
A--5-------5---------------7-------7--6--------------
E----------------------------------------------------


      C#m                        F#
G------------------------------------------------
D--------6--------6------------------------------
A---4--7-----4--7------------------1-4-----1-4---
E-------------------------------2-------2--------


      Bm                        E
G------------------------------------------------------
D----------------------------------6-9-----------------
A---------9---------9-----------7-------7--6-----------
E---7--10-----7--10------------------------------------


     D                     E
G-------------------------------------------------------
D-----4-7-----4-7-------------6-9-----------------------
A--5-------5---------------7-------7--6-----------------
E-------------------------------------------------------


      C#m                        F#
G------------------------------------------------
D--------6--------6------------------------------
A---4--7-----4--7------------------1-4-----1-4---
E-------------------------------2-------2--------
      Bm                        E
G-----------------------------------------------------
D----------------------------------6-9-----6-9--------
A---------9---------9-----------7-------7-------------
E---7--10-----7--10-----------------------------------


     A                        F#
G------------------------------------------------
D------------------------------------------------
A------4-7-------4-7-----------------------------
E---5---------5---------------2--2--2------------



INTRO
VERSO
PUENTE
CORO
INTRO
VERSO
PUENTE
CORO
CORO





Calificar esta versión:
Aviso: Este fichero es trabajo propio de su transcriptor y representa su interpretación personal de la canción. El material contenido en esta página es para exclusivo uso privado, por lo que se prohibe su reproducción o retransmisión, así como su uso para fines comerciales.
Más versiones de Desvelado, Bobby Pulido
Desvelado
acordes
Desvelado (ver 2)
acordes
Desvelado
tablatura
Desvelado
bajo
Desvelado
bateria
Descubre más canciones de Bobby Pulido