El Desprecio, Aventura (tablatura) (ver 3)

Autor: Anónimo | 34476 visualizaciones

Intro:

Afinacion Standard (Sin capo)
v: vibrato
   Am                  F                                        G
E|----12-10-8-10-8-----8----8-10-13-12-10-8-13-12-10-8-13-12-10-8h12-10v|
B|-10--------------10v---10---------------------------------------------|
G|----------------------------------------------------------------------|
D|----------------------------------------------------------------------|
A|----------------------------------------------------------------------|
E|----------------------------------------------------------------------|


   Am               F                                        G
E|-12-10-8-10-8-----8----8-10-13-12-10-8-13-12-10-8-13-12-10-8h12-10v---|
B|--------------10v---10------------------------------------------------|
G|----------------------------------------------------------------------|
D|----------------------------------------------------------------------|
A|----------------------------------------------------------------------|
E|----------------------------------------------------------------------|


   Dm                Am          G
E|-13-13-13-13h15h13-12-12-8-8-7-7---7---7---7---7---7---7--------------|
B|---------------------------------8---8---8---8---8---8---8------------|
G|----------------------------------------------------------------------|
D|----------------------------------------------------------------------|
A|----------------------------------------------------------------------|
E|----------------------------------------------------------------------|



   Dm                Am              G
E|-13-13-13-13h15h13-12-12h13h12-8-8-7-8-8-7-8-8-7-8-8-10---------------|
B|----------------------------------------------------------------------|
G|----------------------------------------------------------------------|
D|----------------------------------------------------------------------|
A|----------------------------------------------------------------------|
E|----------------------------------------------------------------------|


Bueno, eso ha sido todo, esta tab la saque al oido asi que puede que tenga
algunos errores, pero igual disfrutenla... Saludos!
Calificar esta versión:
Aviso: Este fichero es trabajo propio de su transcriptor y representa su interpretación personal de la canción. El material contenido en esta página es para exclusivo uso privado, por lo que se prohibe su reproducción o retransmisión, así como su uso para fines comerciales.
Más versiones de El Desprecio, Aventura
El Desprecio
acordes
El Desprecio
tablatura
El Desprecio (ver 2)
tablatura
El Desprecio (ver 3)
tablatura
Descubre más canciones de Aventura