El Desprecio, Aventura (tablatura)

Autor: Anónimo | 43689 visualizaciones

AQUI LES BA UN POCO DE LO Q HE PODIDO APRESIAR ESPERO QUE LO DISFRUTEN
PARA TODO AQUELLOS QUE LES GUSTAN ESTAS CANCIONES YA QUE SIMPLEMENTE
LAS INTERPRETAN EL MEJOR GRUPO DE BACHATA EN LA HISTORIA
ASI Q ESTO ES PARA TODOS LO MEJOR....

OHHHH
SI QUIEREN HACER SUGERENCIAS O COMENTARIOS SOBRE ESTO
CONTACTENME AL MI CORREO:
retlaw893_@hotmail.com

AQUI LES VA......

                          AVENTURA... EL DESPRESIO

e----------------12-10-8-9/11-----------
B-10-10-10-10-10--------------10--------
G---------------------------------------
D---------------------------------------
A---------------------------------------
E---------------------------------------

e-10-10-10-12-12-12-12-10-10-10-10-12-12-12-10-10/12/10--
B--------------------------------------------------------
G--------------------------------------------------------
D--------------------------------------------------------
A--------------------------------------------------------
E--------------------------------------------------------

welcome to Aventura's world


e----12-10-8-9/11---------
B--10-------------10------
G-------------------------
D-------------------------
A-------------------------
E-------------------------

                          one last time                yes are....
e-10-10-10-12-12-12-12-10-10-10-10-12-12-12-10-10/12-10--
B--------------------------------------------------------
G--------------------------------------------------------
D--------------------------------------------------------
A--------------------------------------------------------
E--------------------------------------------------------

e-14-14-14-14/15-14-12-9----9-9-9---7-8-7-8-7-8-7-----------------
B-----------------------------------------------------------------
G-----------------------------------------------------------------
D-----------------------------------------------------------------
A-----------------------------------------------------------------
E-----------------------------------------------------------------

e-14-14-14-14/15-14-12-12-10---10-10-10-8-8-8-10-10-10-8-8-9------
B-----------------------------------------------------------------
G-----------------------------------------------------------------
D-----------------------------------------------------------------
A-----------------------------------------------------------------
E-----------------------------------------------------------------

Am                    C
Jurame ahora mismo por Dios
         Dm               E
Y que de mi nunca te olvidaste
Am                        C
Y si me dices que no hay amor
     Dm                  E
Con dolor tendre que marcharme


       Dm            G
Me dejare con mucha pena
     C             F
Llevare entre mis venas
                      E
El desprecio de este amor

          Dm          G
Y si por cosas del destino
       C                F
Te arrepientes en el camino
                    E
No te accepto un perdon


   Am                C
Y jurame tambien Corazon
            Dm              E
Que no olvidaste aquellas caricias
      Am                     C
Si en un instante de esta cancion
             Dm                         E
Volvio el recuerdo del lo que fue en tu vida


          Dm                G
Si te das cuenta que aun me amas
      C          F
Y tu luego me rechasas
                  E
Dale honra al Corazon


       Dm             G
Que pensar que me desprecias
      C           F
Me tormenta la pasciensa
                  E
Y me siento sin valor

Dm
Si esto es el desprecio

Lo que me meresco
C
Ayudame mi Dios

Te pido mi señor
G
Se que soy culpable
F
Solo quise amarla
Am
Falle en el amor


Dm
Si es una locura

El que tu me ames
C
Pues mientame mi amor

Y hazlo con pudor
G
Prefiero que me finjas
    F
A que me has sincera
Am
Lo accesinas la illusion

e-------12-10-8-9/11-----------
B-10-10-------------10---------
G------------------------------
D------------------------------
A------------------------------
E------------------------------

e-10-10-10-12-12-12-12-10-10-10-10-12-12-12-10-10/12/10--
B--------------------------------------------------------
G--------------------------------------------------------
D--------------------------------------------------------
A--------------------------------------------------------
E--------------------------------------------------------

                 sin.... tu.... amor....
e---12-10-8-9/11------------------------
B-10-------------10---------------------
G---------------------------------------
D---------------------------------------
A---------------------------------------
E---------------------------------------

                se muere romeo.....     ajaa!!
e-10-10-10-12-12-12-12-10-10-10-10-12-12-12-10-10/12-10--
B--------------------------------------------------------
G--------------------------------------------------------
D--------------------------------------------------------
A--------------------------------------------------------
E--------------------------------------------------------

e-18-18-18-18-18-18-----------------------------------------------
B-------------------18-------15-15-15-15-15-15/16-15-13-13-12-10--
G-----------------------------------------------------------------
D-----------------------------------------------------------------
A-----------------------------------------------------------------
E-----------------------------------------------------------------

e-18-18-18-18-18-18-----------------------------------------------
B-------------------18-------15-15-15-15-15-15/16-15-13-13-12-10--
G-----------------------------------------------------------------
D-----------------------------------------------------------------
A-----------------------------------------------------------------
E-----------------------------------------------------------------

e--------------------------------------
B-15-15-15-15-15-15/16-13--------------
G--------------------------------------
D--------------------------------------
A--------------------------------------
E--------------------------------------

e--------------------------------------
B-15-15-15-15-15-15/16-15-13-13-12-10--
G--------------------------------------
D--------------------------------------
A--------------------------------------
E--------------------------------------

                                  vive tu aventura.....
e-14-14-14-14/15-13-11-9----9-9-9---7-8-7-8-7-8-7-----------------
B-----------------------------------------------------------------
G-----------------------------------------------------------------
D-----------------------------------------------------------------
A-----------------------------------------------------------------
E-----------------------------------------------------------------

              win nastic
e-14-14-14-14/15-14-12-12-10---10-10-10-8-8-8-10-10-10-8-8-9------
B-----------------------------------------------------------------
G-----------------------------------------------------------------
D-----------------------------------------------------------------
A-----------------------------------------------------------------
E-----------------------------------------------------------------

Dm
Si esto es el desprecio

Lo que me meresco
C
Ayudame mi Dios

Te pido mi señor
G
Se que soy culpable
F
Solo quise amarla
Am
Falle en el amor


Dm
Si es una locura

El que tu me ames
C
Pues mientame mi amor

Y hazlo con pudor
G
Prefiero que me finjas
    F
A que me has sincera
Am
Lo accesinas la illusion

Dm               C             G
Si este es el desprecio yo no puedo continuar
Dm                        G
Dime una mentira y la convierto en mi verdad

Dm
Si esto es el desprecio

Lo que me meresco
C
Ayudame mi Dios

Te pido mi señor
G
Se que soy culpable
F
Solo quise amarla
Am
Falle en el amor


Dm
Si es una locura

El que tu me ames
C
Pues mientame mi amor

Y hazlo con pudor
G
Prefiero que me finjas
    F
A que me has sincera
Am
Lo accesinas la illusion

e-----10-8----10-8----10-8-7-8-9-7-8/10---------------------------
B--10------10------10---------------------------------------------
G-----------------------------------------------------------------
D-----------------------------------------------------------------
A-----------------------------------------------------------------
E-----------------------------------------------------------------

Dm               C             G
Si este es el desprecio yo no puedo continuar
Dm                        G
Dime una mentira y la convierto en mi verdad


Em
Si esto es el desprecio

Lo que me meresco
D
Ayudame mi Dios

Te pido mi señor
A
Se que soy culpable
G
Solo quise amarla
Bm
Falle en el amor (en el amor)


Em
Si es una locura

El que tu me ames
D
Pues mientame mi amor

Y hazlo con pudor
A
Prefiero que me finjas
   G
A que me has sincera
Bm
Lo accesinas la illusion

e-10-10-10-13-10-10-10-12----10-10-10-13-10-10-10-12
B---------------------------------------------------
G---------------------------------------------------
D---------------------------------------------------
A---------------------------------------------------
E---------------------------------------------------

LA ilusion....oh oh oh
e-10-10-10-13-10-10-10-12----10-10-10-13-10-10-10-12
B---------------------------------------------------
G---------------------------------------------------
D---------------------------------------------------
A---------------------------------------------------
E---------------------------------------------------

e-10-10-10-13-10-10-10-12----10-10-10-13-10-10-10-12
B---------------------------------------------------
G---------------------------------------------------
D---------------------------------------------------
A---------------------------------------------------
E---------------------------------------------------

oh oh ...la ilucion..........
e-10-10-10-13-10-10-10-12----10-10-10-13-10-10-10-12
B---------------------------------------------------
G---------------------------------------------------
D---------------------------------------------------
A---------------------------------------------------
E---------------------------------------------------

 que....... rico!!!!!
e-10-10-10-13-10-10-10-12---12-14-14-14-12-10--
B----------------------------------------------
G----------------------------------------------
D----------------------------------------------
A----------------------------------------------
E----------------------------------------------


e-10-10-10-13-10-10-10-12----10-10-10-13-10-10-10-12
B---------------------------------------------------
G---------------------------------------------------
D---------------------------------------------------
A---------------------------------------------------
E---------------------------------------------------

ohhh ohhh la ilusion........
e-10-10-10-13-10-10-10-12----10-10-10-13-10-10-10-12
B---------------------------------------------------
G---------------------------------------------------
D---------------------------------------------------
A---------------------------------------------------
E---------------------------------------------------

ESO ES TODO.....
ESPERO QUE LES GUSTE.....
DISFRUTENLA
ESPERO Q SAQUEN TODAVIA MAS CANCIONES JEJEJEJE
Calificar esta versión:
Aviso: Este fichero es trabajo propio de su transcriptor y representa su interpretación personal de la canción. El material contenido en esta página es para exclusivo uso privado, por lo que se prohibe su reproducción o retransmisión, así como su uso para fines comerciales.
Más versiones de El Desprecio, Aventura
El Desprecio
acordes
El Desprecio
tablatura
El Desprecio (ver 2)
tablatura
El Desprecio (ver 3)
tablatura
Descubre más canciones de Aventura