El Desprecio, Aventura (tablatura) (ver 2)

Autor: Anónimo | 22025 visualizaciones

bueno esta es el desprecio de el mejor grupo
de bachat del mundo .para todos los despreciados
hay les va.
estos riff se tocan en el coro hay se los dejo:
RIFF 1:
E|-13----12-13-15-13----8-10-12-13-12-|
B|-15-15------------------------------|
G|------------------------------------|

RIFF 2:

E|-10-10p12-10-8-8p10-8--8p10-10-7-7p8-5-|
B|-12------------------------------------|
G|---------------------------------------|



intro:

E|---------12-10-8-8p10-8---------10-13-12-10----13-12-10---13-12-10-|
B|10-10-10---------------10-10-13-------------13----------13---------|
G|-------------------------------------------------------------------|
D|-------------------------------------------------------------------|
A|-------------------------------------------------------------------|
E|-------------------------------------------------------------------|


E|----10p12-10----12-10-8-8p10-8------10-13-12-10----13-12-10---13-12-10-|
B|-13----------10---------------10-13-------------13---------13----------|
G|-----------------------------------------------------------------------|
D|-----------------------------------------------------------------------|
A|-----------------------------------------------------------------------|
E|-----------------------------------------------------------------------|



E|---10p12-10-12h15-13-13-13-13-13h15-13--------------------------------|
B|-13-----------------------------------13-13-13-13-12--13-13-13-13-13--|
G|----------------------------------------------------------------------|
D|----------------------------------------------------------------------|
A|----------------------------------------------------------------------|
E|----------------------------------------------------------------------|


E|-13-13-13-13-13h15-13-12-12H13-12--------------------------------------|
B|----------------------------------13-13-12-13-13-12-13-13-12--13-13-15-|
G|-----------------------------------------------------------------------|
D|-----------------------------------------------------------------------|
A|-----------------------------------------------------------------------|
E|-----------------------------------------------------------------------|

Am                    C
Jurame ahora mismo por Dios
         Dm               E
Y que de mi nunca te olvidaste
Am                        C
Y si me dices que no hay amor
     Dm                  E
Con dolor tendre que marcharme


       Dm            G
Me alejare con mucha pena
     C             F
Llevare entre mis venas
                      E
El desprecio de este amor

          Dm          G
Y si por cosas del destino
       C                F
Te arrepientes en el camino
                    E
No te accepto un perdon


   Am                C
Y jurame tambien Corazon
            Dm              E
Que no olvidaste aquellas caricias
      Am                     C
Si en un instante de esta cancion
             Dm                         E
Volvio el recuerdo del lo que fue en tu vida


          Dm                G
Si te das cuenta que aun me amas
      C          F
Y tu luego me rechasas
                  E
Dale honra al Corazon


       Dm             G
Que pensar que me desprecias
      C           F
Me tormenta la pasciensa
                  E
Y me siento sin valor
(coro)
riff 1
Dm
Si esto es el desprecio

Lo que me meresco
C
Ayudame mi Dios

Te pido mi señor
riff2
G
Se que soy culpable
F
Solo quise amarla
Am
Falle en el amor


Dm
Si es una locura

El que tu me ames
C
Pues mientame mi amor

Y hazlo con pudor
G
Prefiero que me finjas
    F
A que me has sincera
Am
no asecines  la illusion

intermedio:


E|----12-10-8-8p10-8---------10-13-12-10----13-12-10---13-12-10-|
B|-10---------------10-10-13-------------13----------13---------|
G|--------------------------------------------------------------|
D|--------------------------------------------------------------|
A|--------------------------------------------------------------|
E|--------------------------------------------------------------|

E|-10-15-10-10P12-8-8P10------12-10-8-8p10-8-----------|
B|-12-------------------10-10---------------10-10-13---|
G|-----------------------------------------------------|
D|-----------------------------------------------------|
A|-----------------------------------------------------|
E|-----------------------------------------------------|

E|-10-13-12-10----13-12-10---13-12-10------------------|
B|-------------13----------13--------------------------|
G|-----------------------------------------------------|
D|-----------------------------------------------------|
A|-----------------------------------------------------|
E|-----------------------------------------------------|

E|----10p-12-10-12h15--21-21-21-21-21---------10-10-10-10-10-------|
B|-13--------------------------------23-21-23--------------12-10-12|
G|-----------------------------------------------------------------|
D|-----------------------------------------------------------------|
A|-----------------------------------------------------------------|
E|-----------------------------------------------------------------|


E|-20-20-20-20-20---------9-9-9-9-9-----------------------------|
B|---------------21-20-21-----------10-9-10---------------------|
G|------------------------------------------9-9p11-9-7-9-9-11---|
D|--------------------------------------------------------------|
A|--------------------------------------------------------------|
E|--------------------------------------------------------------|

E|-10-10-10-10-10-----------------------------------------------|
B|----------------12-10-12--------------------------------------|
G|--------------------------11-11p12-11-9-9-7-7-9---------------|
D|--------------------------------------------------------------|
A|--------------------------------------------------------------|
E|--------------------------------------------------------------|

E|-9-9-9-9-9----------------------------------------------------|
B|-----------10-9-10--------------------------------------------|
G|-------------------9-9p11-9-7-7p9-7---------------------------|
D|--------------------------------------------------------------|
A|--------------------------------------------------------------|
E|--------------------------------------------------------------|

E|----13-13-13-13-13h15-13--------------------------------|
B|------------------------13-13-13-13-12--13-13-13-13-13--|
G|--------------------------------------------------------|
D|--------------------------------------------------------|
A|--------------------------------------------------------|
E|--------------------------------------------------------|


E|-13-13-13-13-13h15-13-12-12H13-12--------------------------------------|
B|----------------------------------13-13-12-13-13-12-13-13-12--13-13-15-|
G|-----------------------------------------------------------------------|
D|-----------------------------------------------------------------------|
A|-----------------------------------------------------------------------|
E|-----------------------------------------------------------------------|

(coro)
riff 1
Dm
Si esto es el desprecio

Lo que me meresco
C
Ayudame mi Dios

Te pido mi señor
riff2
G
Se que soy culpable
F
Solo quise amarla
Am
Falle en el amor


Dm
Si es una locura

El que tu me ames
C
Pues mientame mi amor

Y hazlo con pudor
G
Prefiero que me finjas
    F
A que me has sincera
Am
no asecines  la illusion

intermedio 2:

E|----------------------------------------------|
B|-10-12-13-12-13-15-10--12-13-10h9-10-10h12-12-|

Dm               C             G
Si este es el desprecio yo no puedo continuar
Dm                        G
Dime una mentira y la convierto en mi verdad


(aqui aumenta un tono to do tambien los riff)

riff 1
Em
Si esto es el desprecio

Lo que me meresco
D
Ayudame mi Dios

Te pido mi señor
riff 2
A
Se que soy culpable
G
Solo quise amarla
Bm
Falle en el amor


Em
Si es una locura

El que tu me ames
D
Pues mientame mi amor

Y hazlo con pudor
A
Prefiero que me finjas
   G
A que me has sincera
Bm
Lo accesinas la illusion

final:

E|-14-10---14-10---14-10-14-10----14-10-----------------|
B|-------12------12------------12-------12--------------|


E|-14-10---14-10---14-10-14-10----14-10----14-14-14-10---|
B|-------12------12------------12-------12-------------12|

BUENO eso es todo para todas las mujeres especial parati¡¡¡xiomara!!
cualquier duda o cancion en vien me un mensaje ami correo con gusto
los respondere  aqui se los dejo amorconfuego@hotmail.es
 por cierto asi se llama mi banda. adios!!!!
Calificar esta versión:
Aviso: Este fichero es trabajo propio de su transcriptor y representa su interpretación personal de la canción. El material contenido en esta página es para exclusivo uso privado, por lo que se prohibe su reproducción o retransmisión, así como su uso para fines comerciales.
Más versiones de El Desprecio, Aventura
El Desprecio
acordes
El Desprecio
tablatura
El Desprecio (ver 2)
tablatura
El Desprecio (ver 3)
tablatura
Descubre más canciones de Aventura