Como El Color De La Sangre, Alex Campos (tablatura) (ver 3)

Autor: Anónimo | 26196 visualizaciones



Este fichero es trabajo propio de su transcriptor y representa
su interpretación personal de la canción. El materia
Tono original (coro): Gm y sube a Am
Con capotraste(coro): Em y sube a F#m

Acorde desconocido:

Aadd2
---|-----|-----|-----||
---|-----|-----|-----||
---|-----|--1--|-----||
---|-----|--2--|-----||
---|-----|-----|-----||
---|-----|-----|-----||

***Capotraste tercer traste***

Intro:  Am  C  G  D

    Am          C              G             D
e -----------------|--------------|---------------|-----------------
B --4s6-4-3--------|-4s6-4-3---3--|---------------|-----------------
G ----------5s4----|---------3----|--4-6-4s4-3--3-|--3s5-7-5--------x2
D -----------------|--------------|-----------3---|---------1-2-1---
A -----------------|--------------|---------------|--------------5-3
E -----------------|--------------|---------------|-----------------


G                            Em
 Si acaso ya no vuelves tal vez
Am               Aadd2      D
  Recuerda lo que te dije ayer
G                         Em
 tus ojos yo nunca olvidaré
Am              Aadd2      D
  cuando de niño yo te formé

Am                       Bm  C
  Cuando A la luna yo te llevé
Em                           D
  y en la Tormenta yo te cuide

Em                       C
   Aunque lejos te hayas ido
                 G
y se apague tu amor
                     D
mi amor siempre incasable
                Em
luchará a tu favor
                    C
y si niegas mi existencia
                        G
y lo que yo siento por vos
                    D
el lucero de este cielo
                       Em
te dirá que aquí estoy yo
                     C
te dirá que soy tan cierto
                   G
como lo es tu corazón
                        D
como el color de la sangre


G                D           Em
 Si acaso ya no vuelves tal vez
Am                Aadd2          D
  No olvides que siempre yo te amé
G                D        Em
 Mi vida yo por tí entregué
Am             Aadd2       D
  Fue por ese amor que callé

Am                     Bm C
  El reino de mi padre dejé
Em                             D
  y en busca de tu amor yo zarpé
Am               C           G           D
   No hay que temer te cuidaré Allí estaré
Am             C           D
   Vuelvete a mí te esperaré

Sube de Tono

F#m                      D
   Aunque lejos te hayas ido
                 A
y se apague tu amor
                     E
mi amor siempre incasable
                F#m
luchará a tu favor
                    D
y si niegas mi existencia
                        A
y lo que yo siento por vos
                    E
el lucero de este cielo
                       F#m
te dirá que aquí estoy yo
                     D
te dirá que soy tan cierto
                   A
como lo es tu corazón
                        E
como el color de la sangre
                    F#m
que por ti se derramó
                       G                      A
como el amor de aquel padre que su hijo entregó
                     E
como lo es esta canción
                      F#m
que el silencio canto yo

Final
    Am          C              G             D
e -----------------|--------------|---------------|-----------------
B --4s6-4-3--------|-4s6-4-3---3--|---------------|-----------------
G ----------5s4----|---------3----|--4-6-4s4-3--3-|--3s5-7-5--------x2
D -----------------|--------------|-----------3---|---------1-2-1---
A -----------------|--------------|---------------|--------------5-3
E -----------------|--------------|---------------|-----------------




*Nota: en el segundo coro, cuando sube a G, se escucha
 mejor en barra.

Esta canción impactó mi vida, me hablo como
si fuese el mismo Dios
Que aunque nuestro amor se apague y no volvamos
a pensar en Jesus
El siempre nos cuidara. Gracias Señor.

Dios les bendiga. Les Saluda su hermano en Cristo:





Calificar esta versión:
Aviso: Este fichero es trabajo propio de su transcriptor y representa su interpretación personal de la canción. El material contenido en esta página es para exclusivo uso privado, por lo que se prohibe su reproducción o retransmisión, así como su uso para fines comerciales.
Más versiones de Como El Color De La Sangre, Alex Campos
Como El Color De La Sangre
acordes
Como El Color De La Sangre (ver 2)
acordes
Como El Color De La Sangre (ver 3)
acordes
Como El Color De La Sangre
tablatura
Como El Color De La Sangre (ver 2)
tablatura
Como El Color De La Sangre (ver 3)
tablatura
Como El Color De La Sangre
teclado
Descubre más canciones de Alex Campos