Duele El Amor, Aleks Syntek (tablatura) (ver 3)

Autor: Anónimo | 31008 visualizaciones

Ahi les dejo la rola que esta padre.
Va para mi princesa chari.

Intro:

Acustik:


|-----0----------------0----------------0----------------0--------|
|-3-------2---0----3-------2---0----3-------2---0----3-------2---0-|
|---2---2---2--------2---2---2--------2---2---2--------2---2---2---|
|------------------------------------------------------------------|
|------------------------------------------------------------------|
|------------------------------------------------------------------|

Electrik:

|----------------------------------------------------------------|
|------------13--15--15/18-----13--15--13------------------------|
|-12--14--15---------------17--------------15--12---------12--15-|
|--------------------------------------------------15-15---------|
|----------------------------------------------------------------|
|----------------------------------------------------------------|

|---------------------------------------------------------------|
|------------13--15--15/18-----13--15--13-----------------------|
|-12--14--15---------------17--------------15--12---------------|
|-------------------------------------------------15-15---------|
|--------------------------------------------------------15--13-|
|---------------------------------------------------------------|


 E
Siento la humedad, en mí
F#m
De verte llorar, ni hablar
 E
Si es que tú te vas, de aquí
F#m
Creo que a mi me va, sufrir.


 E
Hoy quisiera detener el tiempo
F#m
La distancia entre los dos
 E
Pero se apagó la luz del cielo
F#m
Ya no sale más el sol.

 E
Soy fragilidad, sin ti
 F#m
como superar, el fin
 E
donde es que dañe, no se
 F#m
y el recuperar, se fue.


 D
Ni tu ni yo somos culpables
 F#m
pero somos vulnerables
 D
son las cosas de la vida
 F#m                E
que me queda por vivir.


           D        E                 F#m
Duele el amor, sin ti, llueve hasta mojar
           D        E                F#m
duele el amor, sin ti, duele hasta matar
           D        E                F#m   E
duele el amor, sin ti, todo esta tan gris.


--- se repite la intro de la acustik pero 2 veces ---

|-----0----------------0----------|
|-3-------2---0----3-------2---0--|
|---2---2---2--------2---2---2----|
|---------------------------------|
|---------------------------------|
|---------------------------------|

Electrik:

|----------------------------------------------------------------|
|------------13--15--15/18-----13--15--13------------------------|
|-12--14--15---------------17--------------15--12---------12--15-|
|--------------------------------------------------15-15---------|
|----------------------------------------------------------------|
|----------------------------------------------------------------|

|------------------------------------------------------------------|
|------------13--15--15/18-----13--15--13--------------------------|
|-12--14--15---------------17--------------15--12---------15h17-15-|
|--------------------------------------------------15-15-----------|
|------------------------------------------------------------------|
|------------------------------------------------------------------|


 E
Hoy quisiera detener el tiempo
F#m
La distancia entre los dos
 E
Pero se apagó la luz del cielo
F#m
Ya no sale más el sol.

 E
Soy fragilidad, sin ti
 F#m
como superar, el fin
 E
donde es que dañe, no se
 F#m
y el recuperar, se fue.


 D
Ni tu ni yo somos culpables
 F#m
pero somos vulnerables
 D
son las cosas de la vida
 F#m                E
que me queda por vivir.

           D        E                 F#m
Duele el amor, sin ti, llueve hasta mojar
           D        E                F#m
duele el amor, sin ti, duele hasta matar
           D        E                F#m   E
duele el amor, sin ti, todo esta tan gris.


 D                E 
Siento la humedad, en mí
F#m             E
de verte llorar, ni hablar
 D                  E
si es que tú te vas, de aquí
F#m                 
creo que a mi me va,
 E                    F#m
creo que a mi me va sufrir.

           D        E                 F#m
Duele el amor, sin ti, llueve hasta mojar
           D        E                F#m
duele el amor, sin ti, duele hasta matar
           D        E                F#m   E
duele el amor, sin ti, todo esta tan gris.


Final:

|------------------------------------------------------------------------|
|------------------------------------------------------------------------|
|-14--13------------14--13--16---------14--13----------------------------|
|-----------14--16-----------------14--------------14--12----------------|
|--------16---------------------16-------------16----------14--14--12----|
|---------------------------------------------------------------------14-|


ahy ta la rola ojala y les haya gustado.
dudas a mi correo.
Tkm chari.

Fuente original: LaCuerda
Colaborador original: cris "Dark" [ckba17@msn.com]
Calificar esta versión:
Aviso: Este fichero es trabajo propio de su transcriptor y representa su interpretación personal de la canción. El material contenido en esta página es para exclusivo uso privado, por lo que se prohibe su reproducción o retransmisión, así como su uso para fines comerciales.
Más versiones de Duele El Amor, Aleks Syntek
Duele El Amor
acordes
Duele El Amor (ver 2)
acordes
Duele El Amor (ver 3)
acordes
Duele El Amor
tablatura
Duele El Amor (ver 2)
tablatura
Duele El Amor (ver 3)
tablatura
Duele El Amor
bajo
Descubre más canciones de Aleks Syntek