Duele El Amor, Aleks Syntek (tablatura) (ver 2)

Autor: Anónimo | 27298 visualizaciones

a ver esta es mi primera cancion no las habia escrito antes por que
no me probocava pero es visto muchos errores en algunas
transacciones... bueno aqui esta esta cancion que es
super bien y dond ana sale guapisima.


e-----------7-10---12-7--7-9-7------------------
B----7-9-10--------------------10-7--------10-7-
G--------------------------------------9-9------
D-----------------------------------------------
A-----------------------------------------------
E-----------------------------------------------

e-----------7-10---12-7--7-9-7------------7-----
B----7-9-10--------------------10-7---------10--
G----------------------------------------9------
D-----------------------------------------------
A-----------------------------------------------
E-----------------------------------------------

a.
Re               Mi
Siento La Humedad, En Mí,

Do#m            Fa#m
D Verte Llorar, Y Hablar,

a.
Si Es Q Tu Te Vas, D Aqui
Creo Q A Mi Me Hará, Sufrir.
Hoy Quisiera Detener El Tiempo
Y La Distancia Entre Los Dos
Pero Se Apagó La Luz Del Cielo
Ya No Sale + El Sol

a.
Soy Fragilidad, Sin Ti
Como Superar, El Fin
Cosas Q Dañe, No Se
Y El Recuperar, Se Fue

Re
Ni Tu Ni Yo Somos Culpables,
Fa#m
Pero Somos Vulnerables,
Re
Son Las Cosas D La Vida
Mi
Q Me Queda X Vivir


           Re      Mi
Duele El Amor, Sin Ti

Do#m           Fa#m
Duele Hasta Mojar

           Re      Mi
Duele El Amor, Sin Ti

Do#m           Fa#m
Duele Hasta Matar

           Re      Mi
Duele El Amor, Sin Ti

Do#m            Fa#m
Todo Esta Tan Gris

Hoy Quisiera Detener El Tiempo La Distancia Entre Los Dos
Pero Se Apagó La Luz Del Cielo
Ya No Sale + El Sol

Soy Fragilidad, Sin Ti
Como Superar, El Fin
Cosas Q Dañe, No Se
Y El Recuperar, Se Fue

Ni Tu Ni Yo Somos Culpables,
Pero Somos Vulnerables,
Son Las Cosas D La Vida
Q Me Queda X Vivir

Coro

Siento La Humedad, En Mí,
D Verte Llorar, Y Hablar,
Si Es Q Tu Te Vas, D Aqui
Creo Q A Mi Me Hará, Sufrir.

Siento La Humedad, En Mí,
D Verte Llorar, Y Hablar,
Si Es Q Tu Te Vas, D Aqui
Creo Q A Mi Me Hará, Sufrir.

Coro

esto es todo se la dedico al amor de mi vida maria m.
te amo mi bella

Fuente original: LaCuerda
Colaborador original: Alfonzo lunar [alfrafael2003hotmail.com]
Calificar esta versión:
Aviso: Este fichero es trabajo propio de su transcriptor y representa su interpretación personal de la canción. El material contenido en esta página es para exclusivo uso privado, por lo que se prohibe su reproducción o retransmisión, así como su uso para fines comerciales.
Más versiones de Duele El Amor, Aleks Syntek
Duele El Amor
acordes
Duele El Amor (ver 2)
acordes
Duele El Amor (ver 3)
acordes
Duele El Amor
tablatura
Duele El Amor (ver 2)
tablatura
Duele El Amor (ver 3)
tablatura
Duele El Amor
bajo
Descubre más canciones de Aleks Syntek