Duele El Amor, Aleks Syntek (tablatura)

Autor: Anónimo | 26015 visualizaciones

Acordes utilizados:
     D       E      F#m      D*      E*     C#m
E ---2---/---0---/---2---/---2---/---4---/---4---
B ---3---/---0---/---2---/---3---/---5---/---5---
G ---2---/---1---/---2---/---2---/---4---/---6---
D ---0---/---2---/---4---/---4---/---6---/---6---
A ---x---/---2---/---4---/---5---/---7---/---4---
E ---x---/---0---/---2---/---x---/---x---/---x---

Tab key:

 s = slide
 b = bend
 r = release
 / = arrastras el dedo desde el traste anterior
     respecto al número que le sigue a este símbolo     
 p = pull off

 Despues de esta explicación, aqui está la cancion,
 que para mí suena muy bien. Si tienen correcciones
 o dudas a mi correo.


Intro:

Duele el amor, sin ti
Duele hasta matar

Guitarra acústica

Arpegio acorde D 
e ------0--------*
B -3------3---0--*
G ---2------2----* Repetir 4 veces
D ---------------*
A ---------------*
E ---------------*

Arpegio acorde F#m 
e ------0--------*
B -2------2---0--*
G ---2------2----*
D ---------------*
A ---------------*
E ---------------*

Estos dos arpegios van con los acordes de los riffs 
de la guitarra eléctrica y los de los versos

Guitarra eléctrica:
     D                            F#m
e --------------9-----9s12-------------------------------------
B ------9-10-12------------12-----12-14-12-10----------10------
G -9s11---------------------------------------11---9-9----11---
D -------------------------------------------------------------
A -------------------------------------------------------------
E -------------------------------------------------------------

      D                      F#m
e --------------9---9s12---------------------------------------
B ------9-10-12----------12--12-14-12-10-----------------------
G -9s11----------------------------------11--9b(10)r-9b(10)-7--
D -----------------------------------------------------------9-
A -------------------------------------------------------------
E -------------------------------------------------------------


 D
Siento la humedad, en mí
F#m
De verte llorar, ni hablar
 D
Si es que tú te vas, de aquí
F#m
Creo que a mi me va, sufrir


 D
Hoy quisiera detener el tiempo
F#m
La distancia entre los dos
 D
Pero se apagó la luz del cielo
F#m
Ya no sale más el sol


 D
Soy fragilidad, sin ti
F#m
Como superar, el fin
 D
Donde es que dañé, no se
F#m
Y el recuperar se fue


  D
Ni tú ni yo somos culpables
F#m
Pero somos vulnerables
 D
Son las cosas de la vida
F#m
Que me queda por vivir


Coro:
   E      D*       E*    C#m             F#m
Duele el amor, sin ti, llueve hasta a mojar
   E      D*       E*    C#m         F#m
Duele el amor, sin ti, duele hasta matar
   E      D*       E*   C#m           F#m  E  D    
Duele el amor, sin ti, todo está tan gris

e ------0--------*
B -3------3---0--*
G ---2------2----* Repetir 2 veces
D ---------------*
A ---------------*
E ---------------*


Guitarra eléctrica: tiene una pequeña variación al final
     D                            F#m
e --------------9-----9s12-------------------------------------
B ------9-10-12------------12-----12-14-12-10----------10------
G -9s11---------------------------------------11---9-9----11---
D -------------------------------------------------------------
A -------------------------------------------------------------
E -------------------------------------------------------------

     D                            F#m
e --------------9-----9s12-------------------------------------
B ------9-10-12------------12-----12-14-12-10--------10s12--10-
G -9s11---------------------------------------11---9-----------
D -------------------------------------------------------------
A -------------------------------------------------------------
E -------------------------------------------------------------


D
Hoy quisiera detener el tiempo
F#m
La distancia entre los dos
 D
Pero se apagó la luz del cielo
F#m
Ya no sale más el sol


 D
Soy fragilidad, sin ti
F#m
Como superar, el fin
 D
Donde es que dañé, no se
F#m
Y el recuperar se fue


  D
Ni tú ni yo somos culpables
F#m
Pero somos vulnerables
 D
Son las cosas de la vida
F#m
Que me queda por vivir


Coro:
   E      D*       E*    C#m             F#m
Duele el amor, sin ti, llueve hasta a mojar
   E      D*       E*    C#m         F#m
Duele el amor, sin ti, duele hasta matar
   E      D*       E*   C#m           F#m  E  D    
Duele el amor, sin ti, todo está tan gris

e ------0--------*
B -3------3---0--*
G ---2------2----* Repetir 2 veces
D ---------------*
A ---------------*
E ---------------*


No estoy muy seguro de esta parte pero no suena tan mal

 D                E 
Siento la humedad, en mí
F#m             E
De verte llorar, ni hablar
 D                  E
Si es que tú te vas, de aquí
F#m                 E
Creo que a mi me va, sufrir


Esta parte es cantada por los dos,
los acordes van siguiendo la voz de Aleks

 D*               E*
Siento la humedad, en mí
F#m             E*
De verte llorar, ni hablar
 D*                 E*
Si es que tú te vas, de aquí
F#m              
Creo que a mi me va,
 E                    F#m
Creo que a mi me va sufrir


Coro:
   E      D*       E*    C#m             F#m
Duele el amor, sin ti, llueve hasta a mojar
   E      D*       E*    C#m         F#m
Duele el amor, sin ti, duele hasta matar
   E      D*       E*   C#m           F#m  E  D    
Duele el amor, sin ti, todo está tan gris

Guitarra acústica:
e ------0--------*
B -3------3---0--*
G ---2------2----* Repetir 8 veces
D ---------------*
A ---------------*
E ---------------*

Guitarra eléctrica:
e*----------------*-----------------*--------------------------*
B*-/9-9-----------*-/10-9-12--------*-/9-9---------------------*
G*---------9-11---*-----------9-11--*---------9s7--9p7---------*
D*------11--------*-----------------*------11----------9-9s11--*
A*----------------*-----------------*-------------------------9*
E*----------------*-----------------*-------------------------¡*
                                                              ¡
Guitarra acústica termina en F#m simultáneamente a esta nota__¡ 

Bueno eso es todo, espero y disfruten este tab.

Fuente original: LaCuerda
Colaborador original: Héctor Ramírez Guzmán [hectorprs@hotmail.com]
Calificar esta versión:
Aviso: Este fichero es trabajo propio de su transcriptor y representa su interpretación personal de la canción. El material contenido en esta página es para exclusivo uso privado, por lo que se prohibe su reproducción o retransmisión, así como su uso para fines comerciales.
Más versiones de Duele El Amor, Aleks Syntek
Duele El Amor
acordes
Duele El Amor (ver 2)
acordes
Duele El Amor (ver 3)
acordes
Duele El Amor
tablatura
Duele El Amor (ver 2)
tablatura
Duele El Amor (ver 3)
tablatura
Duele El Amor
bajo
Descubre más canciones de Aleks Syntek