Back In Black, Ac/dc (tablatura) (ver 8)

Autor: ivanme | 21865 visualizaciones

Para mis gusto las demas tablaturas de Back in Black estaban mal aki les dejo la mia . Espero que les guste

1ra Parte ( Ataque de notas) PD: Cuando respies 3 veces la rajeada es ABAJO - ARRIBA - ABAJO mirando desde E
e|-------"-----2-2-2----"--------------------------------------
B|-------"-----3-3-3----"---2-2-2------------------------------
G|-1-----"-----2-2-2----"---2-2-2------------------------------
D|-2-----"--------------"---2-2-2------------------------------
A|-3-----"--------------"--------------------------------------
E|-------"--------------"--------------------------------------

2da Parte( Indivudual ) PD: Deben hacerlo rapido
e|--3--0-------------------------------------------------------
B|------------3--0---------------------------------------------
G|----------------------2--0--0--0-----------------------------
D|-------------------------------------------------------------
A|-------------------------------------------------------------
E|-------------------------------------------------------------

RESPETIR LA 1ra PARTE

3ra Parte ( Individual ) PD: Hay varias formas de hacerlo pero esta me parecio la mejor / = deslisar
e|-------------------------------------------------------------
B|-------------------------------------------------------------
G|-------------------------------------------------------------
D|-------------------------2-2---------------------------------
A|--2-----2-0-----2/1------2-2---------------------------------
E|---4---------------------------------------------------------

TOCAR ESO 2 veces lueg

4ta parte ( Ataque de Notas ) PD: Apartir de / tocar solamente la curda E, A y D
e|-----------/------------------------------------------------
B|-1---------/------------------------------------------------
G|-2-----1---/------------------------------------------------
D|-2-----2---/--4-------2------0-------------------------------
A|-------2---/-2----------------------------------------------
E|-----------/-----------------------------------------------
                                  X2

despues repite todo hasta la 3ra parte y ya

Si es que no les gusto como lo explique o como lo hice pueden ver otro diferente aki http://www.guitaretab.com/

hay otro es un poco mas complicado pero sirve
Calificar esta versión:
Aviso: Este fichero es trabajo propio de su transcriptor y representa su interpretación personal de la canción. El material contenido en esta página es para exclusivo uso privado, por lo que se prohibe su reproducción o retransmisión, así como su uso para fines comerciales.
Más versiones de Back In Black, Ac/dc
Back In Black
acordes
Back In Black (ver 2)
acordes
Back In Black (ver 3)
acordes
Back In Black (ver 4)
acordes
Back In Black (ver 5)
acordes
Back In Black (ver 6)
acordes
Back In Black
tablatura
Back In Black (ver 2)
tablatura
Back In Black (ver 3)
tablatura
Back In Black (ver 4)
tablatura
Back In Black (ver 5)
tablatura
Back In Black (ver 6)
tablatura
Back In Black (ver 7)
tablatura
Back In Black (ver 8)
tablatura
Back In Black
bajo
Back In Black
bateria
Back In Black (ver 2)
bateria
Back In Black
video guitarra
Descubre más canciones de Ac/dc