Back In Black, Ac/dc (tablatura) (ver 5)

Autor: fedex | 17580 visualizaciones


------------------ --3-0--------- -----------------------
-----3-3-3-------- -------3-0---- -----3-3-3-------------
-----2-2-2--2-2-2- ------------2- -----2-2-2--2-2-2------
-2----------2-2-2- -------------- --2---------2-2-2------
-2---------------- -------------- --2--------------------
-0---------------- -------------- --0--------------------


----------------
----------------
----------------
----------------
--2---2---2-----se repite todo entero hasta el estribillo
----3---4---5---
Calificar esta versión:
Aviso: Este fichero es trabajo propio de su transcriptor y representa su interpretación personal de la canción. El material contenido en esta página es para exclusivo uso privado, por lo que se prohibe su reproducción o retransmisión, así como su uso para fines comerciales.
Más versiones de Back In Black, Ac/dc
Back In Black
acordes
Back In Black (ver 2)
acordes
Back In Black (ver 3)
acordes
Back In Black (ver 4)
acordes
Back In Black (ver 5)
acordes
Back In Black (ver 6)
acordes
Back In Black
tablatura
Back In Black (ver 2)
tablatura
Back In Black (ver 3)
tablatura
Back In Black (ver 4)
tablatura
Back In Black (ver 5)
tablatura
Back In Black (ver 6)
tablatura
Back In Black (ver 7)
tablatura
Back In Black (ver 8)
tablatura
Back In Black
bajo
Back In Black
bateria
Back In Black (ver 2)
bateria
Back In Black
video guitarra
Descubre más canciones de Ac/dc