Back In Black, Ac/dc (tablatura) (ver 6)

Autor: tomy @t3n30 | 36243 visualizaciones

E|-----x-------x-------x-----------------------------------
B|-----x-------x-------x---------3---3---3-----------------
G|-x---x---x-—-x---x---x----—----2---2---2---2---2---2-----
D|-x-------x-------x-------2-----0---0---0---2---2---2-----
A|-x-------x-—-----x-------2-----------—-----0---0---0-----
E|-------------------------0-------------------------------

E|-3-0-----------------------------------------------------
B|-----3-0--------------3--3--3----------------------------
G|---------2-0----------2--2--2-----2-2-2------------------
D|-----—-—-—------2-----0--0--0-----2-2-2------------------
A|----------------2-----------------0-0-0---2--2--2--2-----
E|---—------------0--------------------------4--5--6--7----Hasta aca es la parte 1  x4


E|--------------------------------------------3---2--------
B|--------------------------------------------3---3--------
G|--2--------4---2---4---2-------4---2---4----0---2---2----
D|--2---2----4---2---4---2---2---4---2---4----0---0---2----
A|--0---2----2---0---2---0---2---2---0---2----x-------0----
E|------0--------------------0----------------3------------



E|--------------3---2--------------------------------------
B|--------------3---3--------------------------------------
G|----------2—--0---2---2---—--------2---—2-------4---2----
D|----------2---0---0---2------------2----2---2---4---2----
A|---------0-—-x-------0----—------0----0—--2---2---0----
E|--3---3-------3-----------3---3-------------0------------

E|-----------------------------3---3---3---3---3---3---3---
B|-----------------------------3---3---3---3---3---3---3---
G|---4---2--------4---2---4----0---0---0---0---0---0---0---
D|---4---2-—--2---4---2---4----0---0---0---0---0---0---0---
A|---2---0----2---2---0---2----x---x---x---x---x---x---x---
E|---—--------0----------------3---3---3---3---3---3---3---





                    
E|-3---2---2---2-------------------------------------------
B|-3---3---3---3-------------------------------------------
G|-0---2---2---2-------------------------------------------
D|-0---0---0---0-------------------------------------------
A|-x-------------------------------------------------------
E|-3-------------------------------------------------------
Hasta aca parte 2  x1. Después se rpite la part 1 2 vcs  y dspus vien la par 2  x1 
 
    
E|---------------------------------------------------------
B|---------------------------------------------------------
G|---------------------------------------------------------
D|--2--------------------------—-2-2-2-2-2-2-2-2-2---------
A|--2---5---5---5---4---4---4----2-2-2-2-2-2-2-2-2---------
E|--0---0---0---0---0---0---4----0-0-0-0-0-0-0-0-0---------



E|---------------------------------------------------------
B|---------------------------------------------------------
G|-----------—--------------—------------—-----------------
D|---------------------------------------------------------
A|--5-5-5--4-4-4------------—------------—-----------------
E|--0-0-0--0-0-0-------------------------------------------
Hasta aca part 3  x4


Bueno la canción esta muy bien, el solo no lo puse porq era un embole. Si quieren otra canción de acdc u otro artista pidanmela yo tengo todo mi mail maxitn@hotmail.com.

Un SALUDO A TODOS LOS DE ATENEO DE PUNTA ALTA
Calificar esta versión:
Aviso: Este fichero es trabajo propio de su transcriptor y representa su interpretación personal de la canción. El material contenido en esta página es para exclusivo uso privado, por lo que se prohibe su reproducción o retransmisión, así como su uso para fines comerciales.
Más versiones de Back In Black, Ac/dc
Back In Black
acordes
Back In Black (ver 2)
acordes
Back In Black (ver 3)
acordes
Back In Black (ver 4)
acordes
Back In Black (ver 5)
acordes
Back In Black (ver 6)
acordes
Back In Black
tablatura
Back In Black (ver 2)
tablatura
Back In Black (ver 3)
tablatura
Back In Black (ver 4)
tablatura
Back In Black (ver 5)
tablatura
Back In Black (ver 6)
tablatura
Back In Black (ver 7)
tablatura
Back In Black (ver 8)
tablatura
Back In Black
bajo
Back In Black
bateria
Back In Black (ver 2)
bateria
Back In Black
video guitarra
Descubre más canciones de Ac/dc