La Grange, Zz Top (tablatura) (ver 6)

Autor: Merlineo | 43800 visualizaciones

Play this part pretty softly

e-------------------------------
B--------------1--1-3-3---------
G---2-2-2-2-2--2-2--------------  X3
D---2-2-2-2-2-------------------
A-------------------------------
E-------------------------------

And this too

e-------------------------------
B---------------1-3-------------
G---2-2-2-2-2--2----------------  X9
D---2-2-2-2-2-------------------
A-------------------------------
E-------------------------------

Now start to play loud and ad the open string

e-------------------------------
B---------------1-3-------------
G---2-2-2-2-2-2-----------------
D---2-2-2-2-2-------------------  X11
A---0-0-0-0-0-------------------
E-------------------------------

Comentarios del colaborador: genial

Calificar esta versión:
Aviso: Este fichero es trabajo propio de su transcriptor y representa su interpretación personal de la canción. El material contenido en esta página es para exclusivo uso privado, por lo que se prohibe su reproducción o retransmisión, así como su uso para fines comerciales.
Más versiones de La Grange, Zz Top
La Grange
tablatura
La Grange (ver 2)
tablatura
La Grange (ver 3)
tablatura
La Grange (ver 4)
tablatura
La Grange (ver 5)
tablatura
La Grange (ver 6)
tablatura
Descubre más canciones de Zz Top