La Grange, Zz Top (tablatura) (ver 3)

Autor: CrazySoul | 37697 visualizaciones

ZZ Top - La Grange 

1¼ Parte:

E -----------------------------------------------------I
B -----------------------------------------------------I
G -----------------------0--5-5------------------------I
D -----2-2--2--2--2--2---5--2-2------------------------I
A -----0-0--0--0--0--0---------------------------------I
E -----------------------------------------------------I

2¼ Parte:

E -----------------------------------------------------I
B -----------------------------------------------------I
G -----------------------------------------------------I
D -----2-2--2--2--2--2--2---2-2------------------------I
A -----0-0--0--0--0--0--0---3-5------------------------I
E -----------------------------------------------------I

3¼ Parte:

E -----------------------------------------------------I
B -----------------------------------------------------I
G -----------------------------------------------------I
D -----2-2--2--2--2--2--2---5-7------------------------I
A -----0-0--0--0--0--0--0---3-5------------------------I
E -----------------------------------------------------I

NOTA : Cada parte se repite varias veces...

Comentarios del colaborador: Es la primera cancion que paso el TusAcordes pero espero que les guste, que les sirva y que me haya salido bien.

Calificar esta versión:
Aviso: Este fichero es trabajo propio de su transcriptor y representa su interpretación personal de la canción. El material contenido en esta página es para exclusivo uso privado, por lo que se prohibe su reproducción o retransmisión, así como su uso para fines comerciales.
Más versiones de La Grange, Zz Top
La Grange
tablatura
La Grange (ver 2)
tablatura
La Grange (ver 3)
tablatura
La Grange (ver 4)
tablatura
La Grange (ver 5)
tablatura
La Grange (ver 6)
tablatura
Descubre más canciones de Zz Top