Zelda`s Lullaby, Zelda (tablatura) (ver 2)

Autor: chinorock3 | 41133 visualizaciones



e--------------------------------5---3----------
B--0---3---------0---3-----0---3-------3---1-0--
G--------2---0-2-------2-----------------------2
D-----------------------------------------------
A-----------------------------------------------
E-----------------------------------------------

e--------------------------------5---3-10
B--0---3---------0---3-----0---3---------
G--------2---0-2-------2-----------------
D----------------------------------------
A----------------------------------------
E----------------------------------------

e--10---8-7-8-7-3-----8---7-5-7-5-0-----10---8-7-8-7-3--8--15
B------------------------------------------------------------
G------------------------------------------------------------
D------------------------------------------------------------
A------------------------------------------------------------
E------------------------------------------------------------





Comentarios del colaborador: Muy buena canción en verdad y muy fácil.

Calificar esta versión:
Aviso: Este fichero es trabajo propio de su transcriptor y representa su interpretación personal de la canción. El material contenido en esta página es para exclusivo uso privado, por lo que se prohibe su reproducción o retransmisión, así como su uso para fines comerciales.
Más versiones de Zelda`s Lullaby, Zelda
Zelda`s Lullaby
tablatura
Zelda`s Lullaby (ver 2)
tablatura
Descubre más canciones de Zelda