Zelda`s Lullaby, Zelda (tablatura)

Autor: markyn_86 | 40076 visualizaciones



E.--------------------------5-3---------------------------------
B.---3----------3--------3------3-------------------------------
G.-4---2-0-2--4---2---4-----------5-4-2------------------------
D.--------------------------------------------------------------
A.--------------------------------------------------------------
E.--------------------------------------------------------------

E.--------------------------5-3-10------------------------------
B.---3----------3--------3--------------------------------------
G.-4---2-0-2--4---2---4-----------------------------------------
D.--------------------------------------------------------------
A.--------------------------------------------------------------
E.--------------------------------------------------------------

E.-10--8-7-8-7-----8--7-5-7-5-0---10--8-7-8-7---8-15------------
B.-------------8------------------------------8-----------------
G.--------------------------------------------------------------
D.--------------------------------------------------------------
A.--------------------------------------------------------------
E.--------------------------------------------------------------





Calificar esta versión:
Aviso: Este fichero es trabajo propio de su transcriptor y representa su interpretación personal de la canción. El material contenido en esta página es para exclusivo uso privado, por lo que se prohibe su reproducción o retransmisión, así como su uso para fines comerciales.
Más versiones de Zelda`s Lullaby, Zelda
Zelda`s Lullaby
tablatura
Zelda`s Lullaby (ver 2)
tablatura
Descubre más canciones de Zelda