Woman, Wolfmother (tablatura) (ver 2)

Autor: rapero1115 | 20040 visualizaciones



INTRO 
E|--------------------|--------------------|
B|--------------------|--------------------|
G|--------------------|--------------------|
D|--9-9-9-9-9-9-------|--9-9-9-9-9-9-------|
A|--7-7-7-7-7-7-----5-|--7-7-7-7-7-7-----5-|
E|--------------5h7---|--------------5h7---|

E|--------------------|
B|--------------------|
G|--------------------|
D|--9-9-9-9-9-9-------|
A|--7-7-7-7-7-7-----5-|
E|--------------5h7---|


CHORUS 
E|-----------------|------------------|-----------------|------------------|
B|-----------------|------------------|-----------------|------------------|
G|-----------------|------------------|-----------------|------------------|
D|--7--------------|--10--------------|--7--------------|--10--------------|
A|--7--------------|--10--------------|--7--------------|--10--------------|
E|--5--------------|--8---------------|--5--------------|--8---------------|



E|-----------------|------------------|-----------------|------------------|
B|-----------------|------------------|-----------------|------------------|
G|-----------------|------------------|-----------------|------------------|
D|--9--------------|--12--------------|-----------------|------------------|
A|--9--------------|--12--------------|-----------------|------------------|
E|--7--------------|--10--------------|-----------------|------------------|


E|--------------------|--------------------|
B|--------------------|--------------------|
G|--------------------|--------------------|
D|--9-9-9-9-9-9-------|--9-9-9-9-9-9-------|
A|--7-7-7-7-7-7-----5-|--7-7-7-7-7-7-----5-|
E|--------------5h7---|--------------5h7---|


E|--------------------|--------------------|
B|--------------------|--------------------|
G|--------------------|--------------------|
D|--9-9-9-9-9-9-------|--7--------5--------|
A|--7-7-7-7-7-7-----5-|--7--------5--------|
E|--------------5h7---|--5--------3--------|


E|-----------------|------------------|-----------------|------------------|
B|-----------------|------------------|-----------------|------------------|
G|-----------------|------------------|-----------------|------------------|
D|--7--------------|--10--------------|--7--------------|--10--------------|
A|--7--------------|--10--------------|--7--------------|--10--------------|
E|--5--------------|--8---------------|--5--------------|--8---------------|


E|-----------------|------------------|-----------------|------------------|
B|-----------------|------------------|-----------------|------------------|
G|-----------------|------------------|-----------------|------------------|
D|--9--------------|--12--------------|-----------------|------------------|
A|--9--------------|--12--------------|-----------------|------------------|
E|--7--------------|--10--------------|-----------------|------------------|

E|----------------------|----------------------|
B|----------------------|----------------------|
G|----------------------|----------------------|
D|----------------------|----------------------|
A|--7-5---5-------------|--7-5---5-------------|
E|------7---7-5-7-5-3-5-|------7---7-5-7-5-3-0-|

E|----------------------|----------------------|
B|----------------------|----------------------|
G|----------------------|----------------------|
D|----------------------|----------------------|
A|--------5---------5---|--------5--------7----|
E|--0-5-7-----0-5-7-----|--0-5-7----0-5-7------|

E|---------------------|-----------------------|
B|---------------------|-----------------------|
G|---------------------|-----------------------|
D|---------------------|--7---------5----------|
A|--7-5---5------------|--7---------5----------|
E|------7---7-5-7-5----|--5---------3----------|

E|--------------------|--------------------|
B|--------------------|--------------------|
G|--------------------|--------------------|
D|--9-9-9-9-9-9-------|--9-9-9-9-9-9-------|
A|--7-7-7-7-7-7-----5-|--7-7-7-7-7-7-----5-|
E|--------------5h7---|--------------5h7---|


E|----------------------|----------------------|
B|----------------------|----------------------|
G|----------------------|----------------------|
D|----------------------|----------------------|
A|--7-5---5-------------|--7-5---5-------------|
E|------7---7-5-7-5-3-5-|------7---7-5-7-5-3-0-|





Calificar esta versión:
Aviso: Este fichero es trabajo propio de su transcriptor y representa su interpretación personal de la canción. El material contenido en esta página es para exclusivo uso privado, por lo que se prohibe su reproducción o retransmisión, así como su uso para fines comerciales.
Más versiones de Woman, Wolfmother
Woman
acordes
Woman
tablatura
Woman (ver 2)
tablatura
Descubre más canciones de Wolfmother