Woman, Wolfmother (tablatura)

Autor: amazingguitar | 24385 visualizaciones



e|---------------------------------------------------------------------------|
B|---------------------------------------------------------------------------|
G|---9-9-9-9-9----------9-9-9-9-9----------9-9-9-9-9-------------------------|
D|---9-9-9-9-9----------9-9-9-9-9----------9-9-9-9-9------------7--5---------|
A|---7-7-7-7-7-------5--7-7-7-7-7-------5--7-7-7-7-7-------5----7--5---------|x2
E|-------------5-5h7--------------5-5h7--------------5-5h7------5--3---------|

VERSO

e|---------------------------------------------------------------------------|
B|---------------------------------------------------------------------------|
G|---9-9-9-9-9----------9-9-9-9-9----------9-9-9-9-9-------------------------|
D|---9-9-9-9-9----------9-9-9-9-9----------9-9-9-9-9------------7--5---------|
A|---7-7-7-7-7-------5--7-7-7-7-7-------5--7-7-7-7-7-------5----7--5---------|x2
E|-------------5-5h7--------------5-5h7--------------5-5h7------5--3---------|

Coro

e|---------------------------------------------------------------------------|
B|---------------------------------------------------------------------------|
G|---------------------------------------------------------------------------|
D|---7~---------9~---------7~----------9~-----8~-----9~----------------------|
A|---7~---------9~---------7~----------9~-----8~-----9~----------------------|
E|---5~---------7~---------5~----------7~-----6~-----7~----------------------|

e|---------------------------------------------------------------------------|
B|---------------------------------------------------------------------------|
G|---9-9-9-9-9----------9-9-9-9-9----------9-9-9-9-9-------------------------|
D|---9-9-9-9-9----------9-9-9-9-9----------9-9-9-9-9------------7--5---------|
A|---7-7-7-7-7-------5--7-7-7-7-7-------5--7-7-7-7-7-------5----7--5---------|
E|-------------5-5h7--------------5-5h7--------------5-5h7------5--3---------|

VERSo 2

e|---------------------------------------------------------------------------|
B|---------------------------------------------------------------------------|
G|---9-9-9-9-9----------9-9-9-9-9----------9-9-9-9-9-------------------------|
D|---9-9-9-9-9----------9-9-9-9-9----------9-9-9-9-9------------7--5---------|
A|---7-7-7-7-7-------5--7-7-7-7-7-------5--7-7-7-7-7-------5----7--5---------|x2
E|-------------5-5h7--------------5-5h7--------------5-5h7------5--3---------|

Coro

e|---------------------------------------------------------------------------|
B|---------------------------------------------------------------------------|
G|---------------------------------------------------------------------------|
D|---7~---------9~---------7~----------9~-----8~-----9~----------------------|
A|---7~---------9~---------7~----------9~-----8~-----9~----------------------|
E|---5~---------7~---------5~----------7~-----6~-----7~----------------------|

Puente

e|---------------------------------------------------------------------------|
B|---------------------------------------------------------------------------|
G|---------------------------------------------------------------------------|
D|---------------------------------------------------------------------------|
A|-7p5---5-------------7p5---5-----------7p5---5-------------7p5---5---------|
E|-----7--7-5-7p5-3-5------7---7p5-3-0-------7--7-5-7p5-3-5------7---7p5-7-0-|

e|---------------------------------------------------------------------------|
B|---------------------------------------------------------------------------|
G|---------------------------------------------------------------------------|
D|---------------------------------------------------------------------------|
A|-7p5---5-------------7p5---5-----------7p5---5-------------7p5---5---------|
E|-----7--7-5-7p5-3-5------7---7p5-3-0-------7--7-5-7p5-3-5------7---7p5-7-0-|

e|---------------------------------------------------------------------------| 
B|---------------------------------------------------------------------------|
G|---------------------------------------------------------------------------|
D|---------------------------------------------------------------------------|
A|---------------5---------5---------5---------7-----------------------------|x8 
E|-----0-0-5-6-7---0-5-6-7---0-5-6-7---0-5-6-7-------------------------------|

Antes del octavocompás, toca esto

e|---------------------------------------------------------------------------|
B|---------------------------------------------------------------------------|
G|---------------------------------------------------------------------------|
D|-----------------------7--5------------------------------------------------|
A|-----7p5---5-----------7--5------------------------------------------------|
E|---------7---7-3-0-----5--3------------------------------------------------|

e|---------------------------------------------------------------------------|
B|---------------------------------------------------------------------------|
G|---9-9-9-9-9----------9-9-9-9-9----------9-9-9-9-9-------------------------|
D|---9-9-9-9-9----------9-9-9-9-9----------9-9-9-9-9------------7--5---------|
A|---7-7-7-7-7-------5--7-7-7-7-7-------5--7-7-7-7-7-------5----7--5---------|
E|-------------5-5h7--------------5-5h7--------------5-5h7------5--3---------|

Verso 3

e|---------------------------------------------------------------------------|
B|---------------------------------------------------------------------------|
G|---9-9-9-9-9----------9-9-9-9-9----------9-9-9-9-9-------------------------|
D|---9-9-9-9-9----------9-9-9-9-9----------9-9-9-9-9------------7--5---------|
A|---7-7-7-7-7-------5--7-7-7-7-7-------5--7-7-7-7-7-------5----7--5---------|x2
E|-------------5-5h7--------------5-5h7--------------5-5h7------5--3---------|

Coro/final 

e|---------------------------------------------------------------------------|
B|---------------------------------------------------------------------------|
G|---------------------------------------------------------------------------|
D|---7~---------9~---------7~----------9~-----8~-----9~~~~~------------------|
A|---7~---------9~---------7~----------9~-----8~-----9~~~~~------------------|
E|---5~---------7~---------5~----------7~-----6~-----7~~~~~------------------|

| /  slide up
| \  slide down
| h  hammer-on
| p  pull-off
| ~  vibrato
| +  harmonic
| x  Mute note





Comentarios del colaborador: http://www.ultimate-guitar.com/tabs/w/wolfmother/woman_tab.htm

Calificar esta versión:
Aviso: Este fichero es trabajo propio de su transcriptor y representa su interpretación personal de la canción. El material contenido en esta página es para exclusivo uso privado, por lo que se prohibe su reproducción o retransmisión, así como su uso para fines comerciales.
Más versiones de Woman, Wolfmother
Woman
acordes
Woman
tablatura
Woman (ver 2)
tablatura
Descubre más canciones de Wolfmother