The Hardest Button To Button, White Stripes (tablatura)

Autor: Ozzylipe | 20305 visualizaciones

THE HARDEST BUTTON TO BUTTON - WHITE STRIPES

   A5    C5   A#5    D5
e-----|-----|-----|-----|
B-----|-----|-----|-----|
G-----|-----|-----|-----|
D-----|-----|-----|--7--|
A--7--|-10--|--8--|--5--|
E--5--|--8--|--6--|-----|

intro

(es la parte del bajo #veces)
   e---|
   B---|
   G---|
   D---|
   A-0-|
   E-5-|

  A5            C5      (X3)  A#5
e----------------------------|------------------------|
B----------------------------|------------------------|
G----------------------------|------------------------|
D----------------------------|----------------7---7---|
A----7---7---------10---10---|---8---8------5---5---xx|
E--5---5---xx----8----8----xx|-6---6---xx-------------|


entra la bateria...
  A5            C5      (X3)  A#5
e----------------------------|------------------------|
B----------------------------|------------------------|
G----------------------------|------------------------|
D----------------------------|----------------7---7---|
A----7---7---------10---10---|---8---8------5---5---xx|
E--5---5---xx----8----8----xx|-6---6---xx-------------|

we started living in a old house...
  A5            C5      (X3)  A#5
e----------------------------|------------------------|
B----------------------------|------------------------|
G----------------------------|------------------------|
D----------------------------|----------------7---7---|
A----7---7---------10---10---|---8---8------5---5---xx|
E--5---5---xx----8----8----xx|-6---6---xx-------------|

Now we're a family...			  But if you see us around...
  A5                C5			  A#5		     A5
e----------------------------------------|----------------------------|
B----------------------------------------|----------------------------|
G----------------------------------------|----------------------------|
D----------------------------------------|----------------------------|
A-7-7-7-7---7-7-7---10-10-10-10--10-10-10|-8-8-8-8---8-8-8---7-7-7-7-7|
E-5-5-5-5---5-5-5---8--8--8--8---8--8--8-|-6-6-6-6---6-6-6---5-5-5-5-5|

  A5       C5      (X2) A#5        A5
e----------------------|------------------|
B----------------------|------------------|
G----------------------|------------------|
D----------------------|------------------|
A-7-7-7-7---10-10-10-10|-8-8-8-8---7-7-7-7|
E-5-5-5-5---8--8--8--8-|-6-6-6-6---5-5-5-5|


(es la parte del bajo #veces)
   e---|
   B---|
   G---|
   D---|
   A-0-|
   E-5-|

al final, cuando canta "the hardest button to button", se repite # de veces que sea necesario
  A5       C5      (X2) A#5        A5
e----------------------|------------------|
B----------------------|------------------|
G----------------------|------------------|
D----------------------|------------------|
A-7-7-7-7---10-10-10-10|-8-8-8-8---7-7-7-7|
E-5-5-5-5---8--8--8--8-|-6-6-6-6---5-5-5-5|
Calificar esta versión:
Aviso: Este fichero es trabajo propio de su transcriptor y representa su interpretación personal de la canción. El material contenido en esta página es para exclusivo uso privado, por lo que se prohibe su reproducción o retransmisión, así como su uso para fines comerciales.
Más versiones de The Hardest Button To Button, White Stripes
The Hardest Button To Button
tablatura
The Hardest Button To Button
bajo
Descubre más canciones de White Stripes