The Hardest Button To Button, White Stripes (bajo)

Autor: juanderdoy | 32546 visualizaciones

Intro:
G|---------------------------------------
D|---------------------------------------
A|-----------3-3-3-3-----------3-3-3-3---
E|--5-5-5-5-----------5-5-5-5------------

G|---------------------------------------
D|---------------------------------------
A|----------3-3-3-3-----------5-5-5-5----
E|-5-5-5-5-----------7-7-7-7-------------

   Riff 1
G|---------------------------------------
D|---------------------------------------
A|-----------3-3-3-3-----------3-3-3-3---
E|--5-5-5-5-----------5-5-5-5------------

   Riff 2
G|---------------------------------------
D|---------------------------------------
A|-----------3-3-3-3-----------5-5-5-5---
E|--5-5-5-5-----------7-7-7-7------------

Riff 3
G|---------------------------------------
D|---------------------------------------
A|-----------3-3-3-3---------------------
E|--5-5-5-5-----------7-7-7-7.-6-6-6-6---


  cancion:

Intro  -1x
Riff 1 -4x
Riff 2 .1x
Riff 1 .1x
Riff 2 .1x
Riff 3 .1x
Riff 1 .1x
Riff 3 .1x

Comentarios del colaborador: .

Calificar esta versión:
Aviso: Este fichero es trabajo propio de su transcriptor y representa su interpretación personal de la canción. El material contenido en esta página es para exclusivo uso privado, por lo que se prohibe su reproducción o retransmisión, así como su uso para fines comerciales.
Más versiones de The Hardest Button To Button, White Stripes
The Hardest Button To Button
tablatura
The Hardest Button To Button
bajo
Descubre más canciones de White Stripes