Seven Nation Army, White Stripes (tablatura) (ver 8)

Autor: rockivan | 44968 visualizaciones

a qui sta la cancion espero les guste

------------------------
------------------------
------------------------    x 12
------------------------
---7--7--10--7-5-3--2---
------------------------

---------------------------------0-0--
-------------------------------0-0-0--
-----------------------------0-0-0-0--
-------------------------0-0-0-0-0-0--
--3-3-3-3-3-3-3-3----0-0-0-0-0-0-0-0--
--5-5-5-5-5-5-5-5----0-0-0-0-0-0-0-0--

-------------------------------------------------
-------------------------------------------------
--9--9--12-9--7-5--4----9--9--12-9-7-5-3-5-3-2---  x 2
--9--9--12-9--7-5--4----9--9--12-9-7-5-3-5-4-2---
--7--7--10-7--5-3--2----7--7--10-7-5-3-5-3-2-0---
-------------------------------------------------

  se repite todo y luego...

   Solo
----------------------------------------------------
----------------------------------------------------
---9--9-9-9-9s12-11--9-9-12-14-12-12-12s-14-12-11---  x 2
----------------------------------------------------
----------------------------------------------------
----------------------------------------------------

---12--12-12-12-12s15-14--12-12-15-17-15-15-15s17-15-14---
----------------------------------------------------------
----------------------------------------------------------
----------------------------------------------------------
----------------------------------------------------------
----------------------------------------------------------

---12-12-14-12-12-15b-15--12-12-14-12-12-14-12---------
-----------------------------------------------13-12---
-------------------------------------------------------
-------------------------------------------------------
-------------------------------------------------------
-------------------------------------------------------

-------------------------------------------------
-------------------------------------------------
-------------------------------------------------
-------------------------------------------------
-------------------------------------------------
---3-3-3-3-3-3-3-3--5-5-5-5-5-5-5-5--0-------0---

   se repite todo exepto el solo y luego...

--------------------
--------------------
----9-----------9---
----9-----------9---
----7-----------7---
--------------------

  bno esta es la camcion espero le aya gustado
Calificar esta versión:
Aviso: Este fichero es trabajo propio de su transcriptor y representa su interpretación personal de la canción. El material contenido en esta página es para exclusivo uso privado, por lo que se prohibe su reproducción o retransmisión, así como su uso para fines comerciales.
Más versiones de Seven Nation Army, White Stripes
Seven Nation Army
tablatura
Seven Nation Army (ver 2)
tablatura
Seven Nation Army (ver 3)
tablatura
Seven Nation Army (ver 4)
tablatura
Seven Nation Army (ver 5)
tablatura
Seven Nation Army (ver 6)
tablatura
Seven Nation Army (ver 7)
tablatura
Seven Nation Army (ver 8)
tablatura
Seven Nation Army
bajo
Seven Nation Army (ver 2)
bajo
Descubre más canciones de White Stripes