Seven Nation Army, White Stripes (tablatura) (ver 6)

Autor: mc guitar | 24043 visualizaciones

|-----------------------|     
|-----------------------|  
|-----------------------|  
|-----------------------|    12 veces
|-----------------------| 
|--4--4--7--5--3--1--0--|

luego baja

|-----------------------------------|
|-4-4h7-4-2-1-0---4-4h7-4-2-1-3-1-0-|
|-----------------------------------|    2 veces   
|-----------------------------------|      
|-----------------------------------|
|-----------------------------------|

luego vuelve a subir

|-------------------------|     
|-------------------------|  
|-------------------------|   12 veces
|-------------------------|    
|-------------------------| 
|--4--4h7--4--5--3--1--0--|

vuelve a bajar

|-4-4h7-4-2-1-0---4-4h7-4-2-1-3-1-0-|
|-4-4h7-4-2-1-0---4-4h7-4-2-1-3-1-0-|
|-----------------------------------|    4 veces
|-----------------------------------|
|-----------------------------------|
|-----------------------------------|

sube otra vez

|-------------------------|     
|-------------------------|  
|-------------------------|   12 veces
|-------------------------|    
|-------------------------| 
|--4--4h7--4--5--3--1--0--|

baja otra vez

|-----------------------------------|
|-4-4h7-4-2-1-0---4-4h7-4-2-1-3-1-0-|
|-----------------------------------|    2 veces   
|-----------------------------------|      
|-----------------------------------|
|-----------------------------------|

termina con un punteo

|---|--0--|
|-4-|--0--|
|---|--0--|
|---|--3--|
|---|-----|
|---|-----|

espero que les guste...
Calificar esta versión:
Aviso: Este fichero es trabajo propio de su transcriptor y representa su interpretación personal de la canción. El material contenido en esta página es para exclusivo uso privado, por lo que se prohibe su reproducción o retransmisión, así como su uso para fines comerciales.
Más versiones de Seven Nation Army, White Stripes
Seven Nation Army
tablatura
Seven Nation Army (ver 2)
tablatura
Seven Nation Army (ver 3)
tablatura
Seven Nation Army (ver 4)
tablatura
Seven Nation Army (ver 5)
tablatura
Seven Nation Army (ver 6)
tablatura
Seven Nation Army (ver 7)
tablatura
Seven Nation Army (ver 8)
tablatura
Seven Nation Army
bajo
Seven Nation Army (ver 2)
bajo
Descubre más canciones de White Stripes