Ah Ah Oh Oh, Wamba (tablatura)

Autor: Anónimo | 32210 visualizaciones

Por ahora solo tengo algunos punteos y
algunas notas y pues me suenan bien, ojala a uds tambien
e|---------------------14/15----|
B|------5-----------------------|
G|-5------7-5-------------------|
D|---5--------7-5-5-------------|
A|------------------------------|
E|------------------------------|

e|------------------------14/15-|
B|------5-----------------------|
G|-5------7-5---------5---------|
D|---5--------7-5-5-----5-------|
A|------------------------------|
E|------------------------------|

e|-------------------------|
B|-----------5--6-6-6------|
G|---5-5-5-5----------5----| x3
D|----------------------7--|
A|-------------------------|
E|-------------------------|
(en realidad son 4 veces pero la ultima cambia)

e|-------------------------|
B|-----------8--6-6-6--5---|
G|---5-5-5-5-------------7-|
D|-------------------------|
A|-------------------------|
E|-------------------------|

Dices que me quieres, se que no puede ser..


Yo no se pero yo presiento,

me esta maldiciendo a mi    G F G  C Am C x2

  F       G     C       Am     F       E      A       Am
Lalaaa lala   lalaaa lala   lalaaaa lala   lalaaaa lala

                 F G                  C
Lala lalala lala    lala lalala lala

             F      G     C
lala lala lala lalala lala


e|-------------------------------------|
B|-------------3-------------------5---|
G|-1/2-2-2-2-4-4-----4/5-5-5---5-5-----|
D|---------------------------7---------|
A|-------------------------------------|
E|-------------------------------------|

e|-------------------------------------|
B|-------------3-------------5---------|
G|-1/2-2-2-2-4-4-----4/5-5-5---55555---|
D|-------------------------------------|
A|-------------------------------------|
E|-------------------------------------|

                                           C  Am
Yo te pido un besito, ha ha y te toco la manito ho no

        F             G                   C          Am
Yo te digo que te quiero, haha, que eres mi unico anhelo…
(sigue igual)


         F   Am G         C    E    C
Hay mamasita linda, tu eres mi anhelo,
      F     Am   G          C         E   C
tu seras mi tesoro, porque yo a ti te adoro…
(sigue igual)
e|-------------------------------------|
B|--------55---------------------------|
G|-55-44-----55--55-44--77-66----------|  x2
D|-------------------------------------|
A|-------------------------------------|
E|-------------------------------------|

Pronto publicaré lo que me falte, ojala les haya
gustado y si tiene algun error porfavor corrijanlo
Calificar esta versión:
Aviso: Este fichero es trabajo propio de su transcriptor y representa su interpretación personal de la canción. El material contenido en esta página es para exclusivo uso privado, por lo que se prohibe su reproducción o retransmisión, así como su uso para fines comerciales.
Más versiones de Ah Ah Oh Oh, Wamba
Ah Ah Oh Oh
acordes
Ah Ah Oh Oh (ver 2)
acordes
Ah Ah Oh Oh
tablatura
Ah Ah Oh Oh (ver 2)
tablatura
Descubre más canciones de Wamba