Heroe De La Eternidad, Walter Giardino (tablatura)

Autor: Anónimo | 44845 visualizaciones

Intro:  (Lo voy a dividir un poco Para no confundirnos pero lo mejor es escuchar el disco)

1-  F#F#   AF#EF#   EF#E   BCC#CA   F#F#   AF#EF#  - Deja sonar el flanger
2-  “  “      “  “  “ “      “”       “    “       - E
3- “  “      “   “   “      “  “      “     “      -AF#   EE  X2

Verso1:
 F#                                                E                                  A    AbC#         
Suenan en la eternidad ecos de los frenos que una ves arrancaste con tus manos sin pensar,
C#                                                             F#
como puedes escapar si el final lo escribira el esclavo del destino en un lugar

(En el parafo anterior  se  toca esta figura)
d---6---4---6-6---4-6----6--4--6-6---6-4------6---4---6-4------------------------------------|
a-4---4-----4-4---2-4---4--4---4-4---4-2----4---4-----4-4----------4---4-3-2-----------------|
E-----------------------------------------------------------------------------------4-3-2-0--|

Coro:
E                      A                 AbC#                           F#        E-4-3-2-0-
Solo quiero que hoy escuches mi cancion       se lo pido a tu cansado corazon
E                          A     AbC#
no podemos este mundo abandonar       sin tener algo de paz solo algo de paz  

(En el parafo anterior despues de la palabra abandonar se toca la siguiente figura)
g-----6-----4------6-4--6-4---6--------|
d---6-----6------6------6-4---6--------|
a-4-----4------4--------4-2---4-------- |

Luego se toca la tercera linea del intro otra vez y ahora el segundo verso

Verso2:  (se toca igual que el primero)
                                                        
Heroe de la eternidad tus hermosos suenos viven hoy sin imperios que los puedan apagar
pues su fuego brillaran al compas de la ilusion que nos saca de esta horrible obscuridad

Se vuelve a tocar el coro y luego

Puente:
C#            F#           E                       A                       AbC#
oh oh oh    oh oh oh  entregaste tu destino al rockandroll            oh oh oh
C#  B  A  C#  B                                            E F#
oh   oh  oh oh  oh  heroe fiel del rockandroll......






Solo:
e------------------------------------------------------------------5--2p3p2--0p2p0-------------------------------
b---------------------------------------------------------------------------------------4-2---1------------------
g-5sld7-5-3p0------3-5--5sld7- 5--5-3---------3-5sld7--5h3h5------------------------4----------------------------
d--------------3-5------------------------3-5--------------------------------------------------------------------
a----------------------------------------------------------------------------------------------------------------
E----------------------------------------------------------------------------------------------------------------

e--5-3-5sld7--7-5-7sld9-----12-14-12------12-14-12---------------------------------------------------------------------------------
b-------------------------------------12--------------15-14-12-----15-17-15--------------------------------------16-18-bbb21-
g---------------------------------------------------------------14------------18-16-15-----18-18-18-16------18-------------
d---------------------------------------------------------------------------------------18-------------------------------
a----------------------------------------------------------------------------------------------------------------------------------
E----------------------------------------------------------------------------------------------------------------------------------

e----------------------------------------------------------------------------------------------------------------------------
b------------------10b12-10b12-7---5-7---5-7-5-------------------------------------------------------------------------
g----------------------------------------------------7---5-7-5-7-5----5----------------------------------------------------
d---------3-5-6-----------------------------------------------------7---7-5-7----7-9-7-9sld10--9-7-9------------------
a-5-7-8---------------------------------------------------------------------------------------------------------------------
E------------------------------------------------------------------------------------------------------------------------------

e-------------------------------------------------------------------------------------17bbbbb20----------------------------
b----------------------------------------12sld15-14p15--15-------------------------------------------------------------
g----------------------------------------------------------17-----17-15-17-14----------------------------------------------
d--------------------7-9-11---9-7-9--------------------------------------------16------------------------------------------
a----3-5-7--5-7-9------------------------------------------------------------------------------------------------------------
E-5----------------------------------------------------------------------------------------------------------------------------

Despues del bending se repite la introduccion 1 vez y despues se repite el 1er verso y el coro

 Y por ultimo estos acordes cuando termina de decir: solo algo de paz  

  C#C#  B#B#  A  F#F#  tres veces y fin

Nota: todos los acordes son cincos dado que es hard rock , la cancion la saque en tonalidad estandar 
para no hacernos bolas pero creo que se toca en bemol, en fin de todas formas suena muy bien,
si tienen dudas o quieren otra rola de walter o rata escribanme , o si saben algo de el nuevo disco de rata
adios.
Calificar esta versión:
Aviso: Este fichero es trabajo propio de su transcriptor y representa su interpretación personal de la canción. El material contenido en esta página es para exclusivo uso privado, por lo que se prohibe su reproducción o retransmisión, así como su uso para fines comerciales.
Más versiones de Heroe De La Eternidad, Walter Giardino
Heroe De La Eternidad
tablatura
Heroe De La Eternidad
bajo
Descubre más canciones de Walter Giardino