Heroe De La Eternidad, Walter Giardino (bajo)

Autor: Anónimo | 34584 visualizaciones

Introducción (esperar a que entre el bajo):

   Eb                  Fm           Eb
G|---|------------------|----------------|
D|---|------------------|----------------|
A|-6-|------------------|----------6-6-6-|
E|---|-1-1-1-1--1-1-1-1-|-1-1-1-1--------| x2

Canto:

                   Fm
G|------------------|------------------|
D|------------------|------------------|
A|------------------|------------------|
E|-1-1-1-1--1-1-1-1-|-1-1-1-1--1-1-1-1-| x2

                   Eb
G|------------------|------------------|
D|------------------|------------------|
A|-6-6-6-6--6-6-6-6-|-6-6-6-6--6-------|
E|------------------|------------2-3-4-|

                   Ab
G|------------------|------------------|
D|------------------|------------------|
A|------------------|------------1-2-3-|
E|-4-4-4-4--4-4-4-4-|-4-4-4-4--4-------|

                    C                    _
G|------------------|------------------|  |
D|------------------|------------------|  |
A|-3-3-3-3--3-3-3-3-|-3-3-3-3--3-3-3-3-|  |
E|------------------|------------------| _|x2

                   Fm
G|------------------|------------------|
D|------------------|---10-9-8-6-------|
A|------------------|------------8-7-6-|
E|-1-1-1-1--1-1-1-1-|-1----------------|

                   Eb
G|------------------|------------------|
D|------------------|------------------|
A|-6-6-6-6--6-6-6-6-|-6-6-6-6--6-------|
E|------------------|------------2-3-4-|

                   Ab
G|------------------|------------------|
D|------------------|------------------|
A|------------------|------------1-2-3-|
E|-4-4-4-4--4-4-4-4-|-4-4-4-4--4-------|

                    C
G|------------------|------------------|
D|------------------|------------------|
A|-3-3-3-3--3-3-3-3-|-3-3-3-3--3-3-3-3-|
E|------------------|------------------|

                   Fm
G|------------------|------------------|
D|------------------|---10-9-8-6-------|
A|------------------|------------8-7-6-|
E|-1-1-1-1--1-1-1-1-|-1----------------|

                   Eb
G|------------------|------------------|
D|------------------|------------------|
A|-6-6-6-6--6-6-6-6-|-6-6-6-6--6-------|
E|------------------|------------2-3-4-|

                   Ab
G|------------------|------------------|
D|------------------|------------------|
A|------------------|------------1-2-3-|
E|-4-4-4-4--4-4-4-4-|-4-4-4-4--4-------|

     Db   /   C         Bbm   /   Ab
G|------------------|------------------|
D|------------------|------------------|
A|-4-4--4---3-3--3--|-1-1--1-----------|
E|------------------|----------4-4--4--|

                    C
G|------------------|------------------|
D|------------------|------------------|
A|-3-3-3-3--3-3-3-3-|-------3nl--------|
E|------------------|------------------|
-----------------------------------------
Bis Intro y Canto
-----------------------------------------
Segundo Canto:

                    C
G|------------------|------------------|
D|------------------|------------------|
A|-3-3-3-3--3-3-3-3-|-3-3-3-3--3-3-3-3-|
E|------------------|------------------|

                   Fm
G|------------------|------------------|
D|------------------|---10-9-8-6-------|
A|------------------|------------8-7-6-|
E|-1-1-1-1--1-1-1-1-|-1----------------|

                   Eb
G|------------------|------------------|
D|------------------|------------------|
A|-6-6-6-6--6-6-6-6-|-6-6-6-6--6-------|
E|------------------|------------2-3-4-|

                   Ab
G|------------------|------------------|
D|------------------|------------------|
A|------------------|------------1-2-3-|
E|-4-4-4-4--4-4-4-4-|-4-4-4-4--4-------|

                    C
G|------------------|------------------|
D|------------------|------------------|
A|-3-3-3-3--3-3-3-3-|-3-3-3-3--3-3-3-3-|
E|------------------|------------------|

     Fm   /   Eb        Db   /   C
G|------------------|------------------|
D|------------------|------------------|
A|-8-8--8---6-6--6--|-4-4--4---3-3--3--|
E|------------------|------------------|

          Bb                 C                  Fm
G|------------------|------------------|------------------|
D|------------------|------------------|------------------|
A|-1-1-1-1--1-1-1-1-|-3-3-3-3--3-3-3-3-|------------------|
E|------------------|------------------|--------1nl-------|

Solo de guitarra sobre:

     Bb   /   Eb       Ab   /   Db        G    /   C
G|------------------|------------------|------------------|
D|-8---8------------|-6---6------------|-5---5------------|
A|---8------6--6----|---6-----4---4----|---5------3---3---|
E|------------------|------------------|------------------|

  Fm  G Ab  A
G|------------|
D|-3--5--6--7-|
A|------------|
E|-1--3--4--5-|

     Bb   /   Eb       Ab   /   Db        G    /   C
G|------------------|------------------|------------------|
D|-8---8------------|-6---6------------|-5---5------------|
A|---8------6--6----|---6-----4---4----|---5------3---3---|
E|------------------|------------------|------------------|

                   Fm
G|------------------|------------------|
D|------------------|------------------|
A|------------------|------------------|
E|-1-1-1-1--1-1-1-1-|-1-1-1-1--1-1-1-1-|

Bis Segundo Canto
------------------------------------------
Bis Introducción, Canto e Introducción x2
------------------------------------------
Final:
          Fm
G|---------|---------|
D|--10-9-8-|-6-------|
A|-8-------|---8-6-8-|
E|---------|---------| x3
------------------------------------------
Si tenés alguna duda y/o pregunta, escribime a ejpolo@hotmail.com
Calificar esta versión:
Aviso: Este fichero es trabajo propio de su transcriptor y representa su interpretación personal de la canción. El material contenido en esta página es para exclusivo uso privado, por lo que se prohibe su reproducción o retransmisión, así como su uso para fines comerciales.
Más versiones de Heroe De La Eternidad, Walter Giardino
Heroe De La Eternidad
tablatura
Heroe De La Eternidad
bajo
Descubre más canciones de Walter Giardino