Las Guerras, Vox Dei (tablatura)

Autor: Anónimo | 47014 visualizaciones



INTRO:

e|---------------|---------------|
B|--------8------|--------8--10--|
G|----7h9--------|----7h9--------|
D|-9--7h9----9s--|-9--7h9--------|
A|-7-------------|-7-------------|
E|---------------|---------------|x4

E5
Vengo de muy lejos a vivir aquí
en la casa que está detrás del río
vuelvo a buscar nomás lo que es mío
es una promesa que debo cumplir

A5
Voy a cortar la hiedra que me envuelve y me da frío
  E5
y a voltear el muro que me cierra, que me cierra el camino
B5
y a cortar los arboles que no son míos

e|---------------------------------|
B|---8-10-10b-8-10b-8--------------|
G|-9------------------9-8-7---7-9--|
D|--------------------------9------|
A|---------------------------------|
E|---------------------------------|

SOLO:

e|----------------------|---------------------------|
B|-17^^^^---------17-15-|-17^^-17p15----15----------|
G|----------------------|------------16----16-14----|
D|----------------------|---------------------------|
A|----------------------|---------------------------|
E|----------------------|---------------------------|

e|----------------------|-16b18-------16b18---------|
B|-17^^-----------15----|---------------------------|
G|-------------------16-|---------------------------|
D|----------------------|---------------------------|
A|----------------------|---------------------------|
E|----------------------|---------------------------|

e|-17-15----------------|---------------------------|
B|----------------------|---------------------------|
G|----------------------|---------------------------|
D|----------------------|---------------------------|
A|----------------------|---------------------------|
E|----------------------|---------------------------|

e|----------------------|---------------------------|
B|----------------------|---------------------------|
G|----------------------|---------------------------|
D|----------------------|---------------------------|
A|----------------------|---------------------------|
E|----------------------|---------------------------|

e|----------------15----|-16b18-15-17----15---------|
B|-------15-17^^-----17-|-------------17------------|
G|-14/16----------------|---------------------------|
D|----------------------|---------------------------|
A|----------------------|---------------------------|
E|----------------------|---------------------------|

e|-------15b18-17^^-----|-15-15^-----15-15^---------|
B|-------------------17-|---------17---------17-----|
G|----------------------|---------------------------|
D|----------------------|---------------------------|
A|----------------------|---------------------------|
E|----------------------|---------------------------|

e|-----20b22^^^^-----19-|-20b22-19-20b22-19s--------|
B|----------------------|---------------------------|
G|----------------------|---------------------------|
D|----------------------|---------------------------|
A|----------------------|---------------------------|
E|----------------------|---------------------------|

e|---------------------------------|
B|---8-10-10b-8-10b-8--------------|
G|-9------------------9-8-7---7----|
D|--------------------------9------|
A|---------------------------------|
E|---------------------------------|

E5
Vengo de muy lejos a vivir aquí
en la casa que está detrás del río
vuelvo a buscar nomás lo que es mío
es una promesa que debo cumplir

e|----------------------|----------------------|
B|----------------------|----------------------|
G|----------------------|----------3^^^--------|
D|---5-3-5--5-3---------|---5-3-5--------5p3---|
A|--------------5-3-----|----------------------|
E|-3----------------6-3-|-3--------------------|

e|----------------------|----------------------|
B|----------------------|----------------------|
G|----------------------|----------3^^^--------|
D|---5-3-5--5-3---------|---5-3-5--------------|
A|--------------5-3-----|----------------------|
E|-3----------------6-3-|-3--------------------|

G
En el campo se escucho gritar
"quién será capaz de vencerlo al gran Goliat?"
Como está tan equivocado
Para que armas en la mano?
Mira, piensa, dime como está

????????????? (no se que canta exactamente aqui)
Nooooooooo
No, no, no, No, no, no, No, no, no, No, no, no, no

G       G|G       G|G       G|

e|----------------------|----------------------|
B|----------------------|----------------------|
G|----------------------|-------------5h7^^^---|
D|---------------5^^^---|----------------------|
A|-5h4h3h2h1------------|-5h4h3h2h1------------|
E|-----------3----------|-----------3----------|

G
Tu diras Goliat
No querer ganar
y empezó a correr al encuentro del gran David
Una piedra te hará caer y tu espada te matará
Armas, fuerzas de que te sirvió?

Esta historia no ha termionado
Nooooooooo
No, no, no, No, no, no, No, no, no, No, no, no, no

G       G|G       G|G       G|

Intermedio:

e|-----|-----------------------|----------------------|
B|-----|-----------------------|----------------------|
G|-----|-----------------------|----------------------|
D|-----|-----------------------|----------------------|
A|-----|---7--7-5---5-5----5-7-|----7-5----7p6p5---5--|
E|-12s-|-0--------7------7-----|-0------7--------7----|


e|----------------------|----------------------|
B|----------------------|----------------------|
G|----------------------|----------------------|
D|----------------------|----------------------|
A|-----7-5---5-5----5-7-|-----7-5---5-5----5---|
E|-0-------7------7-----|-0-------7------7-----|

e|----------------------|----------------------|
B|-8---8----------8--8--|-8---8----------8---8-|
G|-7---7---7------7--7--|-7---7---7----7---7---|
D|---------5------------|---------5--5---------|
A|----------------------|----------------------|
E|----------------------|----------------------|

e|----------------------|---------------------12-|
B|-8---8----------8-----|-8---8---8---8/12-12----|
G|-7---7---7------7-----|-7---7---7---7/12-------|
D|---------5------------|---------5--------------|
A|----------------------|------------------------|
E|----------------------|------------------------|

e|----------------------|----------------------|
B|-8---8----------8---8-|-8---8----------8-----|
G|-7---7---7----7---7---|-7---7---7------7-----|
D|---------5--5---------|---------5------------|
A|----------------------|----------------------|
E|----------------------|----------------------|

e|----------------------|----------------------|
B|-8---8----------8--8--|-8---8----------8---8-|
G|-7---7---7------7--7--|-7---7---7----7---7---|
D|---------5------------|---------5--5---------|
A|----------------------|----------------------|
E|----------------------|----------------------|

Juega con estas secuencias un largo rato hasta el solo de batería

Solo de bateria

Final:

e|-----------------|-----------------|-----------------|
B|-----------------|-----------------|-----------------|
G|-----------------|-----------------|-----------------|
D|-----------------|-------0-2-2-3-3-|-4-5----------5--|
A|-------------2-2-|-3-3-4-----------|--------------5--|
E|-0-0-1-1-3-3-----|-----------------|--------------3--|


e|-----------------|-----------------|-----------------|
B|-----------------|-----------------|-----------------|
G|-----------------|-----------------|-----------------|
D|-----------------|-----------------|-5-5-------------|
A|-----------------|-----------------|-5-5-------------|
E|-----------------|-----------------|-3-3-------------|

Notación:

n/m slide de traste n a m
p   pull off
h   hammer on
B   bend
r   realise
nsm slide de n a m


Hecho por Luis Loayza
LA Paz - Bolivia
Comentarios y correcciones:
[email protected]





Calificar esta versión:
Aviso: Este fichero es trabajo propio de su transcriptor y representa su interpretación personal de la canción. El material contenido en esta página es para exclusivo uso privado, por lo que se prohibe su reproducción o retransmisión, así como su uso para fines comerciales.
Más versiones de Las Guerras, Vox Dei
Las Guerras
acordes
Las Guerras (ver 2)
acordes
Las Guerras
tablatura
Descubre más canciones de Vox Dei